  0
SECTION
  2
HEADER
  9
$ACADVER
  1
AC1015
  9
$ACADMAINTVER
 70
     6
  9
$DWGCODEPAGE
  3
ANSI_1252
  9
$INSBASE
 10
0.0
 20
0.0
 30
0.0
  9
$EXTMIN
 10
0.0
 20
0.0
 30
0.0
  9
$EXTMAX
 10
431.8
 20
279.4
 30
0.0
  9
$LIMMIN
 10
0.0
 20
0.0
  9
$LIMMAX
 10
431.8
 20
279.4
  9
$ORTHOMODE
 70
     0
  9
$REGENMODE
 70
     1
  9
$FILLMODE
 70
     1
  9
$QTEXTMODE
 70
     0
  9
$MIRRTEXT
 70
     1
  9
$LTSCALE
 40
1.0
  9
$ATTMODE
 70
     1
  9
$TEXTSIZE
 40
4.9388888889
  9
$TRACEWID
 40
1.0
  9
$TEXTSTYLE
  7
Standard
  9
$CLAYER
  8
0
  9
$CELTYPE
  6
ByLayer
  9
$CECOLOR
 62
   256
  9
$CELTSCALE
 40
1.0
  9
$DISPSILH
 70
     0
  9
$DIMSCALE
 40
1.0
  9
$DIMASZ
 40
5.1366373698
  9
$DIMEXO
 40
2.0
  9
$DIMDLI
 40
3.75
  9
$DIMRND
 40
0.0
  9
$DIMDLE
 40
0.0
  9
$DIMEXE
 40
2.0
  9
$DIMTP
 40
0.0
  9
$DIMTM
 40
0.0
  9
$DIMTXT
 40
7.0555555556
  9
$DIMCEN
 40
2.5
  9
$DIMTSZ
 40
0.0
  9
$DIMTOL
 70
     0
  9
$DIMLIM
 70
     0
  9
$DIMTIH
 70
     1
  9
$DIMTOH
 70
     1
  9
$DIMSE1
 70
     0
  9
$DIMSE2
 70
     0
  9
$DIMTAD
 70
     1
  9
$DIMZIN
 70
     0
  9
$DIMBLK
  1

  9
$DIMASO
 70
     1
  9
$DIMSHO
 70
     1
  9
$DIMPOST
  1

  9
$DIMAPOST
  1

  9
$DIMALT
 70
     0
  9
$DIMALTD
 70
     3
  9
$DIMALTF
 40
0.0393700787
  9
$DIMLFAC
 40
1.0
  9
$DIMTOFL
 70
     1
  9
$DIMTVP
 40
0.0
  9
$DIMTIX
 70
     0
  9
$DIMSOXD
 70
     0
  9
$DIMSAH
 70
     0
  9
$DIMBLK1
  1

  9
$DIMBLK2
  1

  9
$DIMSTYLE
  2
ISO-25
  9
$DIMCLRD
 70
     0
  9
$DIMCLRE
 70
     0
  9
$DIMCLRT
 70
     0
  9
$DIMTFAC
 40
1.0
  9
$DIMGAP
 40
2.0
  9
$DIMJUST
 70
     0
  9
$DIMSD1
 70
     0
  9
$DIMSD2
 70
     0
  9
$DIMTOLJ
 70
     0
  9
$DIMTZIN
 70
     0
  9
$DIMALTZ
 70
     0
  9
$DIMALTTZ
 70
     0
  9
$DIMUPT
 70
     0
  9
$DIMDEC
 70
     2
  9
$DIMTDEC
 70
     2
  9
$DIMALTU
 70
     2
  9
$DIMALTTD
 70
     3
  9
$DIMTXSTY
  7
Standard
  9
$DIMAUNIT
 70
     0
  9
$DIMADEC
 70
     2
  9
$DIMALTRND
 40
0.0
  9
$DIMAZIN
 70
     0
  9
$DIMDSEP
 70
    44
  9
$DIMATFIT
 70
     3
  9
$DIMFRAC
 70
     0
  9
$DIMLDRBLK
  1

  9
$DIMLUNIT
 70
     2
  9
$DIMLWD
 70
    -2
  9
$DIMLWE
 70
    -2
  9
$DIMTMOVE
 70
     0
  9
$LUNITS
 70
     2
  9
$LUPREC
 70
     2
  9
$SKETCHINC
 40
1.0
  9
$FILLETRAD
 40
10.0
  9
$AUNITS
 70
     0
  9
$AUPREC
 70
     2
  9
$MENU
  1
.
  9
$ELEVATION
 40
0.0
  9
$PELEVATION
 40
0.0
  9
$THICKNESS
 40
0.0
  9
$LIMCHECK
 70
     0
  9
$CHAMFERA
 40
0.0
  9
$CHAMFERB
 40
0.0
  9
$CHAMFERC
 40
0.0
  9
$CHAMFERD
 40
0.0
  9
$SKPOLY
 70
     0
  9
$TDCREATE
 40
2457690.412828148
  9
$TDUCREATE
 40
2457690.329494815
  9
$TDUPDATE
 40
2457690.412828796
  9
$TDUUPDATE
 40
2457690.329495463
  9
$TDINDWG
 40
0.0000000116
  9
$TDUSRTIMER
 40
0.0000000116
  9
$USRTIMER
 70
     1
  9
$ANGBASE
 50
0.0
  9
$ANGDIR
 70
     0
  9
$PDMODE
 70
     0
  9
$PDSIZE
 40
-1.0
  9
$PLINEWID
 40
0.0
  9
$SPLFRAME
 70
     0
  9
$SPLINETYPE
 70
     6
  9
$SPLINESEGS
 70
     8
  9
$HANDSEED
  5
4A5
  9
$SURFTAB1
 70
     6
  9
$SURFTAB2
 70
     6
  9
$SURFTYPE
 70
     6
  9
$SURFU
 70
     6
  9
$SURFV
 70
     6
  9
$UCSBASE
  2

  9
$UCSNAME
  2

  9
$UCSORG
 10
0.0
 20
0.0
 30
0.0
  9
$UCSXDIR
 10
1.0
 20
0.0
 30
0.0
  9
$UCSYDIR
 10
0.0
 20
1.0
 30
0.0
  9
$UCSORTHOREF
  2

  9
$UCSORTHOVIEW
 70
     0
  9
$UCSORGTOP
 10
0.0
 20
0.0
 30
0.0
  9
$UCSORGBOTTOM
 10
0.0
 20
0.0
 30
0.0
  9
$UCSORGLEFT
 10
0.0
 20
0.0
 30
0.0
  9
$UCSORGRIGHT
 10
0.0
 20
0.0
 30
0.0
  9
$UCSORGFRONT
 10
0.0
 20
0.0
 30
0.0
  9
$UCSORGBACK
 10
0.0
 20
0.0
 30
0.0
  9
$PUCSBASE
  2

  9
$PUCSNAME
  2

  9
$PUCSORG
 10
0.0
 20
0.0
 30
0.0
  9
$PUCSXDIR
 10
1.0
 20
0.0
 30
0.0
  9
$PUCSYDIR
 10
0.0
 20
1.0
 30
0.0
  9
$PUCSORTHOREF
  2

  9
$PUCSORTHOVIEW
 70
     0
  9
$PUCSORGTOP
 10
0.0
 20
0.0
 30
0.0
  9
$PUCSORGBOTTOM
 10
0.0
 20
0.0
 30
0.0
  9
$PUCSORGLEFT
 10
0.0
 20
0.0
 30
0.0
  9
$PUCSORGRIGHT
 10
0.0
 20
0.0
 30
0.0
  9
$PUCSORGFRONT
 10
0.0
 20
0.0
 30
0.0
  9
$PUCSORGBACK
 10
0.0
 20
0.0
 30
0.0
  9
$USERI1
 70
     0
  9
$USERI2
 70
     0
  9
$USERI3
 70
     0
  9
$USERI4
 70
     0
  9
$USERI5
 70
     0
  9
$USERR1
 40
0.0
  9
$USERR2
 40
0.0
  9
$USERR3
 40
0.0
  9
$USERR4
 40
0.0
  9
$USERR5
 40
0.0
  9
$WORLDVIEW
 70
     1
  9
$SHADEDGE
 70
     3
  9
$SHADEDIF
 70
    70
  9
$TILEMODE
 70
     1
  9
$MAXACTVP
 70
    64
  9
$PINSBASE
 10
0.0
 20
0.0
 30
0.0
  9
$PLIMCHECK
 70
     0
  9
$PEXTMIN
 10
1.0000000000E+20
 20
1.0000000000E+20
 30
1.0000000000E+20
  9
$PEXTMAX
 10
-1.0000000000E+20
 20
-1.0000000000E+20
 30
-1.0000000000E+20
  9
$PLIMMIN
 10
0.0
 20
0.0
  9
$PLIMMAX
 10
420.0
 20
297.0
  9
$UNITMODE
 70
     0
  9
$VISRETAIN
 70
     1
  9
$PLINEGEN
 70
     0
  9
$PSLTSCALE
 70
     1
  9
$TREEDEPTH
 70
  3020
  9
$CMLSTYLE
  2
Standard
  9
$CMLJUST
 70
     0
  9
$CMLSCALE
 40
20.0
  9
$PROXYGRAPHICS
 70
     1
  9
$MEASUREMENT
 70
     1
  9
$CELWEIGHT
370
    -1
  9
$ENDCAPS
280
     0
  9
$JOINSTYLE
280
     0
  9
$LWDISPLAY
290
     1
  9
$INSUNITS
 70
     4
  9
$HYPERLINKBASE
  1

  9
$STYLESHEET
  1

  9
$XEDIT
290
     1
  9
$CEPSNTYPE
380
     0
  9
$PSTYLEMODE
290
     1
  9
$FINGERPRINTGUID
  2
{FDFB3BB1-DB29-4232-946C-4C99964E34CD}
  9
$VERSIONGUID
  2
{FAEB1C32-E019-11D5-929B-00C0DF256EC4}
  9
$EXTNAMES
290
     1
  9
$PSVPSCALE
 40
0.0
  9
$OLESTARTUP
290
     0
  0
ENDSEC
  0
SECTION
  2
CLASSES
  0
CLASS
  1
ACDBDICTIONARYWDFLT
  2
AcDbDictionaryWithDefault
  3
ObjectDBX Classes
 90
        0
280
     0
281
     0
  0
CLASS
  1
VISUALSTYLE
  2
AcDbVisualStyle
  3
ObjectDBX Classes
 90
     4095
280
     0
281
     0
  0
CLASS
  1
MATERIAL
  2
AcDbMaterial
  3
ObjectDBX Classes
 90
     1153
280
     0
281
     0
  0
CLASS
  1
SCALE
  2
AcDbScale
  3
ObjectDBX Classes
 90
     1153
280
     0
281
     0
  0
CLASS
  1
TABLESTYLE
  2
AcDbTableStyle
  3
ObjectDBX Classes
 90
     4095
280
     0
281
     0
  0
CLASS
  1
MLEADERSTYLE
  2
AcDbMLeaderStyle
  3
ACDB_MLEADERSTYLE_CLASS
 90
     4095
280
     0
281
     0
  0
CLASS
  1
SUN
  2
AcDbSun
  3
SCENEOE
 90
     1153
280
     0
281
     0
  0
CLASS
  1
ACDBPLACEHOLDER
  2
AcDbPlaceHolder
  3
ObjectDBX Classes
 90
        0
280
     0
281
     0
  0
CLASS
  1
LAYOUT
  2
AcDbLayout
  3
ObjectDBX Classes
 90
        0
280
     0
281
     0
  0
ENDSEC
  0
SECTION
  2
TABLES
  0
TABLE
  2
VPORT
  5
8
330
0
100
AcDbSymbolTable
 70
     1
  0
VPORT
  5
29
330
8
100
AcDbSymbolTableRecord
100
AcDbViewportTableRecord
  2
*Active
 70
     0
 10
0.0
 20
0.0
 11
1.0
 21
1.0
 12
215.9
 22
139.7
 13
0.0
 23
0.0
 14
10.0
 24
10.0
 15
10.0
 25
10.0
 16
0.0
 26
0.0
 36
1.0
 17
0.0
 27
0.0
 37
0.0
 40
279.4
 41
1.5454545455
 42
50.0
 43
0.0
 44
0.0
 50
0.0
 51
0.0
 71
     0
 72
  2000
 73
     1
 74
     3
 75
     0
 76
     0
 77
     0
 78
     0
281
     0
 65
     1
110
0.0
120
0.0
130
0.0
111
1.0
121
0.0
131
0.0
112
0.0
122
1.0
132
0.0
 79
     0
146
0.0
  0
ENDTAB
  0
TABLE
  2
LTYPE
  5
5
330
0
100
AcDbSymbolTable
 70
     6
  0
LTYPE
  5
14
330
5
100
AcDbSymbolTableRecord
100
AcDbLinetypeTableRecord
  2
ByBlock
 70
     0
  3

 72
    65
 73
     0
 40
0.0
  0
LTYPE
  5
15
330
5
100
AcDbSymbolTableRecord
100
AcDbLinetypeTableRecord
  2
ByLayer
 70
     0
  3

 72
    65
 73
     0
 40
0.0
  0
LTYPE
  5
16
330
5
100
AcDbSymbolTableRecord
100
AcDbLinetypeTableRecord
  2
Continuous
 70
     0
  3
Solid line
 72
    65
 73
     0
 40
0.0
  0
LTYPE
  5
6E
330
5
100
AcDbSymbolTableRecord
100
AcDbLinetypeTableRecord
  2
HIDDEN
 70
     0
  3
Hidden __ __ __ __ __ __ __ __ __ __ __ __ __ __
 72
    65
 73
     2
 40
1.905
 49
1.27
 74
     0
 49
-0.635
 74
     0
  0
LTYPE
  5
6F
330
5
100
AcDbSymbolTableRecord
100
AcDbLinetypeTableRecord
  2
PHANTOM
 70
     0
  3
Phantom ______  __  __  ______  __  __  ______
 72
    65
 73
     6
 40
12.7
 49
6.35
 74
     0
 49
-1.27
 74
     0
 49
1.27
 74
     0
 49
-1.27
 74
     0
 49
1.27
 74
     0
 49
-1.27
 74
     0
  0
LTYPE
  5
70
330
5
100
AcDbSymbolTableRecord
100
AcDbLinetypeTableRecord
  2
CENTER
 70
     0
  3
Center ____ _ ____ _ ____ _ ____ _ ____ _ ____
 72
    65
 73
     4
 40
10.16
 49
6.35
 74
     0
 49
-1.27
 74
     0
 49
1.27
 74
     0
 49
-1.27
 74
     0
  0
LTYPE
  5
71
330
5
100
AcDbSymbolTableRecord
100
AcDbLinetypeTableRecord
  2
CENTERX2
 70
     0
  3
Center (2x) ________  __  ________  __  _____
 72
    65
 73
     4
 40
20.32
 49
12.7
 74
     0
 49
-2.54
 74
     0
 49
2.54
 74
     0
 49
-2.54
 74
     0
  0
LTYPE
  5
72
330
5
100
AcDbSymbolTableRecord
100
AcDbLinetypeTableRecord
  2
DOT2
 70
     0
  3
Dot (.5x) ........................................
 72
    65
 73
     2
 40
0.635
 49
0.0
 74
     0
 49
-0.635
 74
     0
  0
ENDTAB
  0
TABLE
  2
LAYER
  5
2
330
0
100
AcDbSymbolTable
 70
     3
  0
LAYER
  5
10
330
2
100
AcDbSymbolTableRecord
100
AcDbLayerTableRecord
  2
0
 70
     0
 62
     7
  6
Continuous
370
    -3
390
F
  0
LAYER
  5
73
330
2
100
AcDbSymbolTableRecord
100
AcDbLayerTableRecord
  2
SLD-0
 70
     0
 62
   179
  6
Continuous
370
    -3
390
F
  0
LAYER
  5
74
330
2
100
AcDbSymbolTableRecord
100
AcDbLayerTableRecord
  2
EBENE_1
 70
     0
 62
   179
  6
Continuous
370
    -3
390
F
  0
ENDTAB
  0
TABLE
  2
STYLE
  5
3
330
0
100
AcDbSymbolTable
 70
     3
  0
STYLE
  5
11
330
3
100
AcDbSymbolTableRecord
100
AcDbTextStyleTableRecord
  2
Standard
 70
     0
 40
0.0
 41
1.0
 50
0.0
 71
     0
 42
4.9388888889
  3
txt
  4

  0
STYLE
  5
96
330
3
100
AcDbSymbolTableRecord
100
AcDbTextStyleTableRecord
  2
SLDTEXTSTYLE0
 70
     0
 40
0.0
 41
0.605
 50
0.0
 71
     0
 42
4.9388888889
  3
TXT
  4

  0
STYLE
  5
16E
330
3
100
AcDbSymbolTableRecord
100
AcDbTextStyleTableRecord
  2
SLDTEXTSTYLE1
 70
     0
 40
0.0
 41
0.75
 50
0.0
 71
     0
 42
4.9388888889
  3
TXT
  4

  0
ENDTAB
  0
TABLE
  2
VIEW
  5
6
330
0
100
AcDbSymbolTable
 70
     0
  0
ENDTAB
  0
TABLE
  2
UCS
  5
7
330
0
100
AcDbSymbolTable
 70
     0
  0
ENDTAB
  0
TABLE
  2
APPID
  5
9
330
0
100
AcDbSymbolTable
 70
     1
  0
APPID
  5
12
330
9
100
AcDbSymbolTableRecord
100
AcDbRegAppTableRecord
  2
ACAD
 70
     0
  0
ENDTAB
  0
TABLE
  2
DIMSTYLE
  5
A
330
0
100
AcDbSymbolTable
 70
     1
100
AcDbDimStyleTable
  0
DIMSTYLE
105
27
330
A
100
AcDbSymbolTableRecord
100
AcDbDimStyleTableRecord
  2
ISO-25
 70
     0
 41
2.5
 42
0.625
 43
3.75
 44
1.25
 73
     0
 74
     0
 77
     1
 78
     8
140
2.5
141
2.5
143
0.0393700787
147
0.625
171
     3
172
     1
178
     0
271
     2
272
     2
274
     3
278
    44
283
     0
284
     8
340
11
  0
ENDTAB
  0
TABLE
  2
BLOCK_RECORD
  5
1
330
0
100
AcDbSymbolTable
 70
    25
  0
BLOCK_RECORD
  5
1F
330
1
100
AcDbSymbolTableRecord
100
AcDbBlockTableRecord
  2
*Model_Space
340
22
  0
BLOCK_RECORD
  5
1B
330
1
100
AcDbSymbolTableRecord
100
AcDbBlockTableRecord
  2
*Paper_Space
340
1E
  0
BLOCK_RECORD
  5
23
330
1
100
AcDbSymbolTableRecord
100
AcDbBlockTableRecord
  2
*Paper_Space0
340
26
  0
BLOCK_RECORD
  5
75
330
1
100
AcDbSymbolTableRecord
100
AcDbBlockTableRecord
  2
Block1
340
0
102
{BLKREFS
331
16D
102
}
  0
BLOCK_RECORD
  5
8C
330
1
100
AcDbSymbolTableRecord
100
AcDbBlockTableRecord
  2
SW_BLOCK_DIMENSION_0
340
0
102
{BLKREFS
331
98
102
}
  0
BLOCK_RECORD
  5
8F
330
1
100
AcDbSymbolTableRecord
100
AcDbBlockTableRecord
  2
_ORIGIN
340
0
102
{BLKREFS
331
94
331
104
102
}
  0
BLOCK_RECORD
  5
99
330
1
100
AcDbSymbolTableRecord
100
AcDbBlockTableRecord
  2
SW_BLOCK_DIMENSION_1
340
0
102
{BLKREFS
331
A0
102
}
  0
BLOCK_RECORD
  5
A1
330
1
100
AcDbSymbolTableRecord
100
AcDbBlockTableRecord
  2
SW_BLOCK_DIMENSION_2
340
0
102
{BLKREFS
331
A8
102
}
  0
BLOCK_RECORD
  5
A9
330
1
100
AcDbSymbolTableRecord
100
AcDbBlockTableRecord
  2
SW_BLOCK_DIMENSION_3
340
0
102
{BLKREFS
331
B0
102
}
  0
BLOCK_RECORD
  5
B1
330
1
100
AcDbSymbolTableRecord
100
AcDbBlockTableRecord
  2
SW_BLOCK_DIMENSION_4
340
0
102
{BLKREFS
331
B8
102
}
  0
BLOCK_RECORD
  5
B9
330
1
100
AcDbSymbolTableRecord
100
AcDbBlockTableRecord
  2
SW_BLOCK_DIMENSION_5
340
0
102
{BLKREFS
331
C0
102
}
  0
BLOCK_RECORD
  5
C1
330
1
100
AcDbSymbolTableRecord
100
AcDbBlockTableRecord
  2
SW_BLOCK_DIMENSION_6
340
0
102
{BLKREFS
331
C8
102
}
  0
BLOCK_RECORD
  5
C9
330
1
100
AcDbSymbolTableRecord
100
AcDbBlockTableRecord
  2
SW_BLOCK_DIMENSION_7
340
0
102
{BLKREFS
331
D0
102
}
  0
BLOCK_RECORD
  5
D1
330
1
100
AcDbSymbolTableRecord
100
AcDbBlockTableRecord
  2
SW_BLOCK_DIMENSION_8
340
0
102
{BLKREFS
331
D8
102
}
  0
BLOCK_RECORD
  5
D9
330
1
100
AcDbSymbolTableRecord
100
AcDbBlockTableRecord
  2
SW_BLOCK_DIMENSION_9
340
0
102
{BLKREFS
331
E0
102
}
  0
BLOCK_RECORD
  5
E1
330
1
100
AcDbSymbolTableRecord
100
AcDbBlockTableRecord
  2
SW_BLOCK_DIMENSION_10
340
0
102
{BLKREFS
331
E8
102
}
  0
BLOCK_RECORD
  5
E9
330
1
100
AcDbSymbolTableRecord
100
AcDbBlockTableRecord
  2
SW_BLOCK_DIMENSION_11
340
0
102
{BLKREFS
331
F0
102
}
  0
BLOCK_RECORD
  5
F1
330
1
100
AcDbSymbolTableRecord
100
AcDbBlockTableRecord
  2
SW_BLOCK_DIMENSION_12
340
0
102
{BLKREFS
331
F8
102
}
  0
BLOCK_RECORD
  5
F9
330
1
100
AcDbSymbolTableRecord
100
AcDbBlockTableRecord
  2
SW_BLOCK_DIMENSION_13
340
0
102
{BLKREFS
331
100
102
}
  0
BLOCK_RECORD
  5
101
330
1
100
AcDbSymbolTableRecord
100
AcDbBlockTableRecord
  2
SW_BLOCK_DIMENSION_14
340
0
102
{BLKREFS
331
110
102
}
  0
BLOCK_RECORD
  5
111
330
1
100
AcDbSymbolTableRecord
100
AcDbBlockTableRecord
  2
SW_BLOCK_DIMENSION_15
340
0
102
{BLKREFS
331
121
102
}
  0
BLOCK_RECORD
  5
122
330
1
100
AcDbSymbolTableRecord
100
AcDbBlockTableRecord
  2
SW_BLOCK_DIMENSION_16
340
0
102
{BLKREFS
331
132
102
}
  0
BLOCK_RECORD
  5
133
330
1
100
AcDbSymbolTableRecord
100
AcDbBlockTableRecord
  2
SW_BLOCK_DIMENSION_17
340
0
102
{BLKREFS
331
143
102
}
  0
BLOCK_RECORD
  5
144
330
1
100
AcDbSymbolTableRecord
100
AcDbBlockTableRecord
  2
SW_BLOCK_DIMENSION_18
340
0
102
{BLKREFS
331
154
102
}
  0
BLOCK_RECORD
  5
155
330
1
100
AcDbSymbolTableRecord
100
AcDbBlockTableRecord
  2
SW_BLOCK_DIMENSION_19
340
0
102
{BLKREFS
331
165
102
}
  0
BLOCK_RECORD
  5
166
330
1
100
AcDbSymbolTableRecord
100
AcDbBlockTableRecord
  2
SW_NOTE_0
340
0
102
{BLKREFS
331
16B
102
}
  0
BLOCK_RECORD
  5
171
330
1
100
AcDbSymbolTableRecord
100
AcDbBlockTableRecord
  2
SW_NOTE_1
340
0
102
{BLKREFS
331
178
102
}
  0
ENDTAB
  0
ENDSEC
  0
SECTION
  2
BLOCKS
  0
BLOCK
  5
20
330
1F
100
AcDbEntity
  8
0
100
AcDbBlockBegin
  2
*Model_Space
 70
     0
 10
0.0
 20
0.0
 30
0.0
  3
*Model_Space
  1

  0
ENDBLK
  5
21
330
1F
100
AcDbEntity
  8
0
100
AcDbBlockEnd
  0
BLOCK
  5
1C
330
1B
100
AcDbEntity
 67
     1
  8
0
100
AcDbBlockBegin
  2
*Paper_Space
 70
     0
 10
0.0
 20
0.0
 30
0.0
  3
*Paper_Space
  1

  0
ENDBLK
  5
1D
330
1B
100
AcDbEntity
 67
     1
  8
0
100
AcDbBlockEnd
  0
BLOCK
  5
24
330
23
100
AcDbEntity
  8
0
100
AcDbBlockBegin
  2
*Paper_Space0
 70
     0
 10
0.0
 20
0.0
 30
0.0
  3
*Paper_Space0
  1

  0
ENDBLK
  5
25
330
23
100
AcDbEntity
  8
0
100
AcDbBlockEnd
  0
BLOCK
  5
76
330
75
100
AcDbEntity
  8
0
100
AcDbBlockBegin
  2
Block1
 70
     0
 10
0.0
 20
0.0
 30
0.0
  3
Block1
  1

  0
LINE
  5
78
330
75
100
AcDbEntity
  8
EBENE_1
100
AcDbLine
 10
363.6834285714
 20
41.3579706949
 30
0.0
 11
388.6834285714
 21
41.3579706949
 31
0.0
  0
LINE
  5
79
330
75
100
AcDbEntity
  8
EBENE_1
100
AcDbLine
 10
374.9034285714
 20
41.3579706949
 30
0.0
 11
374.9034285714
 21
171.3579706949
 31
0.0
  0
LINE
  5
7A
330
75
100
AcDbEntity
  8
EBENE_1
100
AcDbLine
 10
374.9034285714
 20
51.3579706949
 30
0.0
 11
384.9034285714
 21
51.3579706949
 31
0.0
  0
LINE
  5
7B
330
75
100
AcDbEntity
  8
EBENE_1
100
AcDbLine
 10
374.9034285714
 20
61.3579706949
 30
0.0
 11
384.9034285714
 21
61.3579706949
 31
0.0
  0
LINE
  5
7C
330
75
100
AcDbEntity
  8
EBENE_1
100
AcDbLine
 10
374.9034285714
 20
71.3579706949
 30
0.0
 11
384.9034285714
 21
71.3579706949
 31
0.0
  0
LINE
  5
7D
330
75
100
AcDbEntity
  8
EBENE_1
100
AcDbLine
 10
374.9034285714
 20
81.3579706949
 30
0.0
 11
384.9034285714
 21
81.3579706949
 31
0.0
  0
LINE
  5
7E
330
75
100
AcDbEntity
  8
EBENE_1
100
AcDbLine
 10
374.9034285714
 20
91.3579706949
 30
0.0
 11
384.9034285714
 21
91.3579706949
 31
0.0
  0
LINE
  5
7F
330
75
100
AcDbEntity
  8
EBENE_1
100
AcDbLine
 10
374.9034285714
 20
101.3579706949
 30
0.0
 11
384.9034285714
 21
101.3579706949
 31
0.0
  0
LINE
  5
80
330
75
100
AcDbEntity
  8
EBENE_1
100
AcDbLine
 10
374.9034285714
 20
111.3579706949
 30
0.0
 11
384.9034285714
 21
111.3579706949
 31
0.0
  0
LINE
  5
81
330
75
100
AcDbEntity
  8
EBENE_1
100
AcDbLine
 10
374.9034285714
 20
121.3579706949
 30
0.0
 11
384.9034285714
 21
121.3579706949
 31
0.0
  0
LINE
  5
82
330
75
100
AcDbEntity
  8
EBENE_1
100
AcDbLine
 10
374.9034285714
 20
131.3579706949
 30
0.0
 11
384.9034285714
 21
131.3579706949
 31
0.0
  0
LINE
  5
83
330
75
100
AcDbEntity
  8
EBENE_1
100
AcDbLine
 10
374.9034285714
 20
141.3579706949
 30
0.0
 11
384.9034285714
 21
141.3579706949
 31
0.0
  0
LINE
  5
84
330
75
100
AcDbEntity
  8
EBENE_1
100
AcDbLine
 10
374.9034285714
 20
151.3579706949
 30
0.0
 11
384.9034285714
 21
151.3579706949
 31
0.0
  0
LINE
  5
85
330
75
100
AcDbEntity
  8
EBENE_1
100
AcDbLine
 10
374.9034285714
 20
161.3579706949
 30
0.0
 11
384.9034285714
 21
161.3579706949
 31
0.0
  0
LINE
  5
86
330
75
100
AcDbEntity
  8
EBENE_1
100
AcDbLine
 10
374.9034285714
 20
171.3579706949
 30
0.0
 11
384.9034285714
 21
171.3579706949
 31
0.0
  0
LINE
  5
87
330
75
100
AcDbEntity
  8
EBENE_1
100
AcDbLine
 10
374.9034285714
 20
66.7579706949
 30
0.0
 11
362.9034285714
 21
66.7579706949
 31
0.0
  0
LINE
  5
88
330
75
100
AcDbEntity
  8
EBENE_1
100
AcDbLine
 10
374.9034285714
 20
92.1579706949
 30
0.0
 11
362.9034285714
 21
92.1579706949
 31
0.0
  0
LINE
  5
89
330
75
100
AcDbEntity
  8
EBENE_1
100
AcDbLine
 10
374.9034285714
 20
117.5579706949
 30
0.0
 11
362.9034285714
 21
117.5579706949
 31
0.0
  0
LINE
  5
8A
330
75
100
AcDbEntity
  8
EBENE_1
100
AcDbLine
 10
374.9034285714
 20
142.9579706949
 30
0.0
 11
362.9034285714
 21
142.9579706949
 31
0.0
  0
LINE
  5
8B
330
75
100
AcDbEntity
  8
EBENE_1
100
AcDbLine
 10
374.9034285714
 20
168.3579706949
 30
0.0
 11
362.9034285714
 21
168.3579706949
 31
0.0
  0
INSERT
  5
98
330
75
100
AcDbEntity
  8
EBENE_1
100
AcDbBlockReference
  2
SW_BLOCK_DIMENSION_0
 10
397.2096946378
 20
38.9914197296
 30
0.0
  0
INSERT
  5
A0
330
75
100
AcDbEntity
  8
EBENE_1
100
AcDbBlockReference
  2
SW_BLOCK_DIMENSION_1
 10
397.2096946378
 20
48.9914197296
 30
0.0
  0
INSERT
  5
A8
330
75
100
AcDbEntity
  8
EBENE_1
100
AcDbBlockReference
  2
SW_BLOCK_DIMENSION_2
 10
397.2096946378
 20
58.9914197296
 30
0.0
  0
INSERT
  5
B0
330
75
100
AcDbEntity
  8
EBENE_1
100
AcDbBlockReference
  2
SW_BLOCK_DIMENSION_3
 10
397.2096946378
 20
68.9914197296
 30
0.0
  0
INSERT
  5
B8
330
75
100
AcDbEntity
  8
EBENE_1
100
AcDbBlockReference
  2
SW_BLOCK_DIMENSION_4
 10
397.2096946378
 20
78.9914197296
 30
0.0
  0
INSERT
  5
C0
330
75
100
AcDbEntity
  8
EBENE_1
100
AcDbBlockReference
  2
SW_BLOCK_DIMENSION_5
 10
397.2096946378
 20
88.9914197296
 30
0.0
  0
INSERT
  5
C8
330
75
100
AcDbEntity
  8
EBENE_1
100
AcDbBlockReference
  2
SW_BLOCK_DIMENSION_6
 10
397.2096946378
 20
98.9914197296
 30
0.0
  0
INSERT
  5
D0
330
75
100
AcDbEntity
  8
EBENE_1
100
AcDbBlockReference
  2
SW_BLOCK_DIMENSION_7
 10
397.2096946378
 20
108.9914197296
 30
0.0
  0
INSERT
  5
D8
330
75
100
AcDbEntity
  8
EBENE_1
100
AcDbBlockReference
  2
SW_BLOCK_DIMENSION_8
 10
397.2096946378
 20
118.9914197296
 30
0.0
  0
INSERT
  5
E0
330
75
100
AcDbEntity
  8
EBENE_1
100
AcDbBlockReference
  2
SW_BLOCK_DIMENSION_9
 10
397.2096946378
 20
128.9914197296
 30
0.0
  0
INSERT
  5
E8
330
75
100
AcDbEntity
  8
EBENE_1
100
AcDbBlockReference
  2
SW_BLOCK_DIMENSION_10
 10
397.2096946378
 20
138.9914197296
 30
0.0
  0
INSERT
  5
F0
330
75
100
AcDbEntity
  8
EBENE_1
100
AcDbBlockReference
  2
SW_BLOCK_DIMENSION_11
 10
397.2096946378
 20
148.9914197296
 30
0.0
  0
INSERT
  5
F8
330
75
100
AcDbEntity
  8
EBENE_1
100
AcDbBlockReference
  2
SW_BLOCK_DIMENSION_12
 10
397.2096946378
 20
158.9914197296
 30
0.0
  0
INSERT
  5
100
330
75
100
AcDbEntity
  8
EBENE_1
100
AcDbBlockReference
  2
SW_BLOCK_DIMENSION_13
 10
397.2096946378
 20
168.9914197296
 30
0.0
  0
INSERT
  5
110
330
75
100
AcDbEntity
  8
EBENE_1
100
AcDbBlockReference
  2
SW_BLOCK_DIMENSION_14
 10
337.2987953614
 20
36.1691980072
 30
0.0
  0
INSERT
  5
121
330
75
100
AcDbEntity
  8
EBENE_1
100
AcDbBlockReference
  2
SW_BLOCK_DIMENSION_15
 10
337.2987953614
 20
61.5691980072
 30
0.0
  0
INSERT
  5
132
330
75
100
AcDbEntity
  8
EBENE_1
100
AcDbBlockReference
  2
SW_BLOCK_DIMENSION_16
 10
337.2987953614
 20
86.9691980072
 30
0.0
  0
INSERT
  5
143
330
75
100
AcDbEntity
  8
EBENE_1
100
AcDbBlockReference
  2
SW_BLOCK_DIMENSION_17
 10
337.2987953614
 20
112.3691980072
 30
0.0
  0
INSERT
  5
154
330
75
100
AcDbEntity
  8
EBENE_1
100
AcDbBlockReference
  2
SW_BLOCK_DIMENSION_18
 10
336.8284243759
 20
137.7691980072
 30
0.0
  0
INSERT
  5
165
330
75
100
AcDbEntity
  8
EBENE_1
100
AcDbBlockReference
  2
SW_BLOCK_DIMENSION_19
 10
337.2987953614
 20
163.1691980072
 30
0.0
  0
INSERT
  5
16B
330
75
100
AcDbEntity
  8
EBENE_1
 62
   179
100
AcDbBlockReference
  2
SW_NOTE_0
 10
337.5586028241
 20
28.8175207347
 30
0.0
  0
MTEXT
  5
16C
330
75
100
AcDbEntity
  8
EBENE_1
100
AcDbMText
 10
393.160738319
 20
33.5924424874
 30
0.0
 40
3.7041666667
 41
0.0
 71
     1
 72
     1
  1
mm
  7
SLDTEXTSTYLE0
 73
     1
 44
1.0
  0
ENDBLK
  5
77
330
75
100
AcDbEntity
  8
0
100
AcDbBlockEnd
  0
BLOCK
  5
8D
330
8C
100
AcDbEntity
  8
0
100
AcDbBlockBegin
  2
SW_BLOCK_DIMENSION_0
 70
     0
 10
0.0
 20
0.0
 30
0.0
  3
SW_BLOCK_DIMENSION_0
  1

  0
INSERT
  5
94
330
8C
100
AcDbEntity
  8
EBENE_1
 62
     0
100
AcDbBlockReference
  2
_ORIGIN
 10
-1.5805038061
 20
2.3665509652
 30
0.0
 41
0.9483022837
 42
0.9483022837
 50
0.0
  0
LINE
  5
95
330
8C
100
AcDbEntity
  8
EBENE_1
 62
     0
100
AcDbLine
 10
-6.5262660664
 20
2.3665509652
 30
0.0
 11
0.0
 21
2.3665509652
 31
0.0
  0
MTEXT
  5
97
330
8C
100
AcDbEntity
  8
EBENE_1
 62
     0
100
AcDbMText
 10
0.0
 20
4.0927900738
 30
0.0
 40
3.175
 41
0.0
 71
     1
 72
     1
  1
0
  7
SLDTEXTSTYLE0
 73
     1
 44
1.0
  0
ENDBLK
  5
8E
330
8C
100
AcDbEntity
  8
0
100
AcDbBlockEnd
  0
BLOCK
  5
90
330
8F
100
AcDbEntity
  8
0
100
AcDbBlockBegin
  2
_ORIGIN
 70
     0
 10
0.0
 20
0.0
 30
0.0
  3
_ORIGIN
  1

  0
CIRCLE
  5
92
330
8F
100
AcDbEntity
  8
0
  6
ByBlock
 62
     0
370
    -2
100
AcDbCircle
 10
0.0
 20
0.0
 30
0.0
 40
0.5
  0
LINE
  5
93
330
8F
100
AcDbEntity
  8
0
  6
ByBlock
 62
     0
370
    -2
100
AcDbLine
 10
0.0
 20
0.0
 30
0.0
 11
-1.0
 21
0.0
 31
0.0
  0
ENDBLK
  5
91
330
8F
100
AcDbEntity
  8
0
100
AcDbBlockEnd
  0
BLOCK
  5
9A
330
99
100
AcDbEntity
  8
0
100
AcDbBlockBegin
  2
SW_BLOCK_DIMENSION_1
 70
     0
 10
0.0
 20
0.0
 30
0.0
  3
SW_BLOCK_DIMENSION_1
  1

  0
SOLID
  5
9C
330
99
100
AcDbEntity
  8
EBENE_1
 62
     0
100
AcDbTrace
 10
-1.5805038061
 20
2.3665509652
 30
0.0
 11
-2.0546549479
 21
-0.7154314566
 31
0.0
 12
-1.1063526643
 22
-0.7154314566
 32
0.0
 13
-1.1063526643
 23
-0.7154314566
 33
0.0
  0
LINE
  5
9D
330
99
100
AcDbEntity
  8
EBENE_1
 62
     0
100
AcDbLine
 10
-10.3062660664
 20
2.3665509652
 30
0.0
 11
0.0
 21
2.3665509652
 31
0.0
  0
LINE
  5
9E
330
99
100
AcDbEntity
  8
EBENE_1
 62
     0
100
AcDbLine
 10
-1.5805038061
 20
-7.6334490348
 30
0.0
 11
-1.5805038061
 21
2.3665509652
 31
0.0
  0
MTEXT
  5
9F
330
99
100
AcDbEntity
  8
EBENE_1
 62
     0
100
AcDbMText
 10
0.0
 20
4.0927900738
 30
0.0
 40
3.175
 41
0.0
 71
     1
 72
     1
  1
10
  7
SLDTEXTSTYLE0
 73
     1
 44
1.0
  0
ENDBLK
  5
9B
330
99
100
AcDbEntity
  8
0
100
AcDbBlockEnd
  0
BLOCK
  5
A2
330
A1
100
AcDbEntity
  8
0
100
AcDbBlockBegin
  2
SW_BLOCK_DIMENSION_2
 70
     0
 10
0.0
 20
0.0
 30
0.0
  3
SW_BLOCK_DIMENSION_2
  1

  0
SOLID
  5
A4
330
A1
100
AcDbEntity
  8
EBENE_1
 62
     0
100
AcDbTrace
 10
-1.5805038061
 20
2.3665509652
 30
0.0
 11
-2.0546549479
 21
-0.7154314566
 31
0.0
 12
-1.1063526643
 22
-0.7154314566
 32
0.0
 13
-1.1063526643
 23
-0.7154314566
 33
0.0
  0
LINE
  5
A5
330
A1
100
AcDbEntity
  8
EBENE_1
 62
     0
100
AcDbLine
 10
-10.3062660664
 20
2.3665509652
 30
0.0
 11
0.0
 21
2.3665509652
 31
0.0
  0
LINE
  5
A6
330
A1
100
AcDbEntity
  8
EBENE_1
 62
     0
100
AcDbLine
 10
-1.5805038061
 20
-7.6334490348
 30
0.0
 11
-1.5805038061
 21
2.3665509652
 31
0.0
  0
MTEXT
  5
A7
330
A1
100
AcDbEntity
  8
EBENE_1
 62
     0
100
AcDbMText
 10
0.0
 20
4.0927900738
 30
0.0
 40
3.175
 41
0.0
 71
     1
 72
     1
  1
20
  7
SLDTEXTSTYLE0
 73
     1
 44
1.0
  0
ENDBLK
  5
A3
330
A1
100
AcDbEntity
  8
0
100
AcDbBlockEnd
  0
BLOCK
  5
AA
330
A9
100
AcDbEntity
  8
0
100
AcDbBlockBegin
  2
SW_BLOCK_DIMENSION_3
 70
     0
 10
0.0
 20
0.0
 30
0.0
  3
SW_BLOCK_DIMENSION_3
  1

  0
SOLID
  5
AC
330
A9
100
AcDbEntity
  8
EBENE_1
 62
     0
100
AcDbTrace
 10
-1.5805038061
 20
2.3665509652
 30
0.0
 11
-2.0546549479
 21
-0.7154314566
 31
0.0
 12
-1.1063526643
 22
-0.7154314566
 32
0.0
 13
-1.1063526643
 23
-0.7154314566
 33
0.0
  0
LINE
  5
AD
330
A9
100
AcDbEntity
  8
EBENE_1
 62
     0
100
AcDbLine
 10
-10.3062660664
 20
2.3665509652
 30
0.0
 11
0.0
 21
2.3665509652
 31
0.0
  0
LINE
  5
AE
330
A9
100
AcDbEntity
  8
EBENE_1
 62
     0
100
AcDbLine
 10
-1.5805038061
 20
-7.6334490348
 30
0.0
 11
-1.5805038061
 21
2.3665509652
 31
0.0
  0
MTEXT
  5
AF
330
A9
100
AcDbEntity
  8
EBENE_1
 62
     0
100
AcDbMText
 10
0.0
 20
4.0927900738
 30
0.0
 40
3.175
 41
0.0
 71
     1
 72
     1
  1
30
  7
SLDTEXTSTYLE0
 73
     1
 44
1.0
  0
ENDBLK
  5
AB
330
A9
100
AcDbEntity
  8
0
100
AcDbBlockEnd
  0
BLOCK
  5
B2
330
B1
100
AcDbEntity
  8
0
100
AcDbBlockBegin
  2
SW_BLOCK_DIMENSION_4
 70
     0
 10
0.0
 20
0.0
 30
0.0
  3
SW_BLOCK_DIMENSION_4
  1

  0
SOLID
  5
B4
330
B1
100
AcDbEntity
  8
EBENE_1
 62
     0
100
AcDbTrace
 10
-1.5805038061
 20
2.3665509652
 30
0.0
 11
-2.0546549479
 21
-0.7154314566
 31
0.0
 12
-1.1063526643
 22
-0.7154314566
 32
0.0
 13
-1.1063526643
 23
-0.7154314566
 33
0.0
  0
LINE
  5
B5
330
B1
100
AcDbEntity
  8
EBENE_1
 62
     0
100
AcDbLine
 10
-10.3062660664
 20
2.3665509652
 30
0.0
 11
0.0
 21
2.3665509652
 31
0.0
  0
LINE
  5
B6
330
B1
100
AcDbEntity
  8
EBENE_1
 62
     0
100
AcDbLine
 10
-1.5805038061
 20
-7.6334490348
 30
0.0
 11
-1.5805038061
 21
2.3665509652
 31
0.0
  0
MTEXT
  5
B7
330
B1
100
AcDbEntity
  8
EBENE_1
 62
     0
100
AcDbMText
 10
0.0
 20
4.0927900738
 30
0.0
 40
3.175
 41
0.0
 71
     1
 72
     1
  1
40
  7
SLDTEXTSTYLE0
 73
     1
 44
1.0
  0
ENDBLK
  5
B3
330
B1
100
AcDbEntity
  8
0
100
AcDbBlockEnd
  0
BLOCK
  5
BA
330
B9
100
AcDbEntity
  8
0
100
AcDbBlockBegin
  2
SW_BLOCK_DIMENSION_5
 70
     0
 10
0.0
 20
0.0
 30
0.0
  3
SW_BLOCK_DIMENSION_5
  1

  0
SOLID
  5
BC
330
B9
100
AcDbEntity
  8
EBENE_1
 62
     0
100
AcDbTrace
 10
-1.5805038061
 20
2.3665509652
 30
0.0
 11
-2.0546549479
 21
-0.7154314566
 31
0.0
 12
-1.1063526643
 22
-0.7154314566
 32
0.0
 13
-1.1063526643
 23
-0.7154314566
 33
0.0
  0
LINE
  5
BD
330
B9
100
AcDbEntity
  8
EBENE_1
 62
     0
100
AcDbLine
 10
-10.3062660664
 20
2.3665509652
 30
0.0
 11
0.0
 21
2.3665509652
 31
0.0
  0
LINE
  5
BE
330
B9
100
AcDbEntity
  8
EBENE_1
 62
     0
100
AcDbLine
 10
-1.5805038061
 20
-7.6334490348
 30
0.0
 11
-1.5805038061
 21
2.3665509652
 31
0.0
  0
MTEXT
  5
BF
330
B9
100
AcDbEntity
  8
EBENE_1
 62
     0
100
AcDbMText
 10
0.0
 20
4.0927900738
 30
0.0
 40
3.175
 41
0.0
 71
     1
 72
     1
  1
50
  7
SLDTEXTSTYLE0
 73
     1
 44
1.0
  0
ENDBLK
  5
BB
330
B9
100
AcDbEntity
  8
0
100
AcDbBlockEnd
  0
BLOCK
  5
C2
330
C1
100
AcDbEntity
  8
0
100
AcDbBlockBegin
  2
SW_BLOCK_DIMENSION_6
 70
     0
 10
0.0
 20
0.0
 30
0.0
  3
SW_BLOCK_DIMENSION_6
  1

  0
SOLID
  5
C4
330
C1
100
AcDbEntity
  8
EBENE_1
 62
     0
100
AcDbTrace
 10
-1.5805038061
 20
2.3665509652
 30
0.0
 11
-2.0546549479
 21
-0.7154314566
 31
0.0
 12
-1.1063526643
 22
-0.7154314566
 32
0.0
 13
-1.1063526643
 23
-0.7154314566
 33
0.0
  0
LINE
  5
C5
330
C1
100
AcDbEntity
  8
EBENE_1
 62
     0
100
AcDbLine
 10
-10.3062660664
 20
2.3665509652
 30
0.0
 11
0.0
 21
2.3665509652
 31
0.0
  0
LINE
  5
C6
330
C1
100
AcDbEntity
  8
EBENE_1
 62
     0
100
AcDbLine
 10
-1.5805038061
 20
-7.6334490348
 30
0.0
 11
-1.5805038061
 21
2.3665509652
 31
0.0
  0
MTEXT
  5
C7
330
C1
100
AcDbEntity
  8
EBENE_1
 62
     0
100
AcDbMText
 10
0.0
 20
4.0927900738
 30
0.0
 40
3.175
 41
0.0
 71
     1
 72
     1
  1
60
  7
SLDTEXTSTYLE0
 73
     1
 44
1.0
  0
ENDBLK
  5
C3
330
C1
100
AcDbEntity
  8
0
100
AcDbBlockEnd
  0
BLOCK
  5
CA
330
C9
100
AcDbEntity
  8
0
100
AcDbBlockBegin
  2
SW_BLOCK_DIMENSION_7
 70
     0
 10
0.0
 20
0.0
 30
0.0
  3
SW_BLOCK_DIMENSION_7
  1

  0
SOLID
  5
CC
330
C9
100
AcDbEntity
  8
EBENE_1
 62
     0
100
AcDbTrace
 10
-1.5805038061
 20
2.3665509652
 30
0.0
 11
-2.0546549479
 21
-0.7154314566
 31
0.0
 12
-1.1063526643
 22
-0.7154314566
 32
0.0
 13
-1.1063526643
 23
-0.7154314566
 33
0.0
  0
LINE
  5
CD
330
C9
100
AcDbEntity
  8
EBENE_1
 62
     0
100
AcDbLine
 10
-10.3062660664
 20
2.3665509652
 30
0.0
 11
0.0
 21
2.3665509652
 31
0.0
  0
LINE
  5
CE
330
C9
100
AcDbEntity
  8
EBENE_1
 62
     0
100
AcDbLine
 10
-1.5805038061
 20
-7.6334490348
 30
0.0
 11
-1.5805038061
 21
2.3665509652
 31
0.0
  0
MTEXT
  5
CF
330
C9
100
AcDbEntity
  8
EBENE_1
 62
     0
100
AcDbMText
 10
0.0
 20
4.0927900738
 30
0.0
 40
3.175
 41
0.0
 71
     1
 72
     1
  1
70
  7
SLDTEXTSTYLE0
 73
     1
 44
1.0
  0
ENDBLK
  5
CB
330
C9
100
AcDbEntity
  8
0
100
AcDbBlockEnd
  0
BLOCK
  5
D2
330
D1
100
AcDbEntity
  8
0
100
AcDbBlockBegin
  2
SW_BLOCK_DIMENSION_8
 70
     0
 10
0.0
 20
0.0
 30
0.0
  3
SW_BLOCK_DIMENSION_8
  1

  0
SOLID
  5
D4
330
D1
100
AcDbEntity
  8
EBENE_1
 62
     0
100
AcDbTrace
 10
-1.5805038061
 20
2.3665509652
 30
0.0
 11
-2.0546549479
 21
-0.7154314566
 31
0.0
 12
-1.1063526643
 22
-0.7154314566
 32
0.0
 13
-1.1063526643
 23
-0.7154314566
 33
0.0
  0
LINE
  5
D5
330
D1
100
AcDbEntity
  8
EBENE_1
 62
     0
100
AcDbLine
 10
-10.3062660664
 20
2.3665509652
 30
0.0
 11
0.0
 21
2.3665509652
 31
0.0
  0
LINE
  5
D6
330
D1
100
AcDbEntity
  8
EBENE_1
 62
     0
100
AcDbLine
 10
-1.5805038061
 20
-7.6334490348
 30
0.0
 11
-1.5805038061
 21
2.3665509652
 31
0.0
  0
MTEXT
  5
D7
330
D1
100
AcDbEntity
  8
EBENE_1
 62
     0
100
AcDbMText
 10
0.0
 20
4.0927900738
 30
0.0
 40
3.175
 41
0.0
 71
     1
 72
     1
  1
80
  7
SLDTEXTSTYLE0
 73
     1
 44
1.0
  0
ENDBLK
  5
D3
330
D1
100
AcDbEntity
  8
0
100
AcDbBlockEnd
  0
BLOCK
  5
DA
330
D9
100
AcDbEntity
  8
0
100
AcDbBlockBegin
  2
SW_BLOCK_DIMENSION_9
 70
     0
 10
0.0
 20
0.0
 30
0.0
  3
SW_BLOCK_DIMENSION_9
  1

  0
SOLID
  5
DC
330
D9
100
AcDbEntity
  8
EBENE_1
 62
     0
100
AcDbTrace
 10
-1.5805038061
 20
2.3665509652
 30
0.0
 11
-2.0546549479
 21
-0.7154314566
 31
0.0
 12
-1.1063526643
 22
-0.7154314566
 32
0.0
 13
-1.1063526643
 23
-0.7154314566
 33
0.0
  0
LINE
  5
DD
330
D9
100
AcDbEntity
  8
EBENE_1
 62
     0
100
AcDbLine
 10
-10.3062660664
 20
2.3665509652
 30
0.0
 11
0.0
 21
2.3665509652
 31
0.0
  0
LINE
  5
DE
330
D9
100
AcDbEntity
  8
EBENE_1
 62
     0
100
AcDbLine
 10
-1.5805038061
 20
-7.6334490348
 30
0.0
 11
-1.5805038061
 21
2.3665509652
 31
0.0
  0
MTEXT
  5
DF
330
D9
100
AcDbEntity
  8
EBENE_1
 62
     0
100
AcDbMText
 10
0.0
 20
4.0927900738
 30
0.0
 40
3.175
 41
0.0
 71
     1
 72
     1
  1
90
  7
SLDTEXTSTYLE0
 73
     1
 44
1.0
  0
ENDBLK
  5
DB
330
D9
100
AcDbEntity
  8
0
100
AcDbBlockEnd
  0
BLOCK
  5
E2
330
E1
100
AcDbEntity
  8
0
100
AcDbBlockBegin
  2
SW_BLOCK_DIMENSION_10
 70
     0
 10
0.0
 20
0.0
 30
0.0
  3
SW_BLOCK_DIMENSION_10
  1

  0
SOLID
  5
E4
330
E1
100
AcDbEntity
  8
EBENE_1
 62
     0
100
AcDbTrace
 10
-1.5805038061
 20
2.3665509652
 30
0.0
 11
-2.0546549479
 21
-0.7154314566
 31
0.0
 12
-1.1063526643
 22
-0.7154314566
 32
0.0
 13
-1.1063526643
 23
-0.7154314566
 33
0.0
  0
LINE
  5
E5
330
E1
100
AcDbEntity
  8
EBENE_1
 62
     0
100
AcDbLine
 10
-10.3062660664
 20
2.3665509652
 30
0.0
 11
0.0
 21
2.3665509652
 31
0.0
  0
LINE
  5
E6
330
E1
100
AcDbEntity
  8
EBENE_1
 62
     0
100
AcDbLine
 10
-1.5805038061
 20
-7.6334490348
 30
0.0
 11
-1.5805038061
 21
2.3665509652
 31
0.0
  0
MTEXT
  5
E7
330
E1
100
AcDbEntity
  8
EBENE_1
 62
     0
100
AcDbMText
 10
0.0
 20
4.0927900738
 30
0.0
 40
3.175
 41
0.0
 71
     1
 72
     1
  1
100
  7
SLDTEXTSTYLE0
 73
     1
 44
1.0
  0
ENDBLK
  5
E3
330
E1
100
AcDbEntity
  8
0
100
AcDbBlockEnd
  0
BLOCK
  5
EA
330
E9
100
AcDbEntity
  8
0
100
AcDbBlockBegin
  2
SW_BLOCK_DIMENSION_11
 70
     0
 10
0.0
 20
0.0
 30
0.0
  3
SW_BLOCK_DIMENSION_11
  1

  0
SOLID
  5
EC
330
E9
100
AcDbEntity
  8
EBENE_1
 62
     0
100
AcDbTrace
 10
-1.5805038061
 20
2.3665509652
 30
0.0
 11
-2.0546549479
 21
-0.7154314566
 31
0.0
 12
-1.1063526643
 22
-0.7154314566
 32
0.0
 13
-1.1063526643
 23
-0.7154314566
 33
0.0
  0
LINE
  5
ED
330
E9
100
AcDbEntity
  8
EBENE_1
 62
     0
100
AcDbLine
 10
-10.3062660664
 20
2.3665509652
 30
0.0
 11
0.0
 21
2.3665509652
 31
0.0
  0
LINE
  5
EE
330
E9
100
AcDbEntity
  8
EBENE_1
 62
     0
100
AcDbLine
 10
-1.5805038061
 20
-7.6334490348
 30
0.0
 11
-1.5805038061
 21
2.3665509652
 31
0.0
  0
MTEXT
  5
EF
330
E9
100
AcDbEntity
  8
EBENE_1
 62
     0
100
AcDbMText
 10
0.0
 20
4.0927900738
 30
0.0
 40
3.175
 41
0.0
 71
     1
 72
     1
  1
110
  7
SLDTEXTSTYLE0
 73
     1
 44
1.0
  0
ENDBLK
  5
EB
330
E9
100
AcDbEntity
  8
0
100
AcDbBlockEnd
  0
BLOCK
  5
F2
330
F1
100
AcDbEntity
  8
0
100
AcDbBlockBegin
  2
SW_BLOCK_DIMENSION_12
 70
     0
 10
0.0
 20
0.0
 30
0.0
  3
SW_BLOCK_DIMENSION_12
  1

  0
SOLID
  5
F4
330
F1
100
AcDbEntity
  8
EBENE_1
 62
     0
100
AcDbTrace
 10
-1.5805038061
 20
2.3665509652
 30
0.0
 11
-2.0546549479
 21
-0.7154314566
 31
0.0
 12
-1.1063526643
 22
-0.7154314566
 32
0.0
 13
-1.1063526643
 23
-0.7154314566
 33
0.0
  0
LINE
  5
F5
330
F1
100
AcDbEntity
  8
EBENE_1
 62
     0
100
AcDbLine
 10
-10.3062660664
 20
2.3665509652
 30
0.0
 11
0.0
 21
2.3665509652
 31
0.0
  0
LINE
  5
F6
330
F1
100
AcDbEntity
  8
EBENE_1
 62
     0
100
AcDbLine
 10
-1.5805038061
 20
-7.6334490348
 30
0.0
 11
-1.5805038061
 21
2.3665509652
 31
0.0
  0
MTEXT
  5
F7
330
F1
100
AcDbEntity
  8
EBENE_1
 62
     0
100
AcDbMText
 10
0.0
 20
4.0927900738
 30
0.0
 40
3.175
 41
0.0
 71
     1
 72
     1
  1
120
  7
SLDTEXTSTYLE0
 73
     1
 44
1.0
  0
ENDBLK
  5
F3
330
F1
100
AcDbEntity
  8
0
100
AcDbBlockEnd
  0
BLOCK
  5
FA
330
F9
100
AcDbEntity
  8
0
100
AcDbBlockBegin
  2
SW_BLOCK_DIMENSION_13
 70
     0
 10
0.0
 20
0.0
 30
0.0
  3
SW_BLOCK_DIMENSION_13
  1

  0
SOLID
  5
FC
330
F9
100
AcDbEntity
  8
EBENE_1
 62
     0
100
AcDbTrace
 10
-1.5805038061
 20
2.3665509652
 30
0.0
 11
-2.0546549479
 21
-0.7154314566
 31
0.0
 12
-1.1063526643
 22
-0.7154314566
 32
0.0
 13
-1.1063526643
 23
-0.7154314566
 33
0.0
  0
LINE
  5
FD
330
F9
100
AcDbEntity
  8
EBENE_1
 62
     0
100
AcDbLine
 10
-10.3062660664
 20
2.3665509652
 30
0.0
 11
0.0
 21
2.3665509652
 31
0.0
  0
LINE
  5
FE
330
F9
100
AcDbEntity
  8
EBENE_1
 62
     0
100
AcDbLine
 10
-1.5805038061
 20
-7.6334490348
 30
0.0
 11
-1.5805038061
 21
2.3665509652
 31
0.0
  0
MTEXT
  5
FF
330
F9
100
AcDbEntity
  8
EBENE_1
 62
     0
100
AcDbMText
 10
0.0
 20
4.0927900738
 30
0.0
 40
3.175
 41
0.0
 71
     1
 72
     1
  1
130
  7
SLDTEXTSTYLE0
 73
     1
 44
1.0
  0
ENDBLK
  5
FB
330
F9
100
AcDbEntity
  8
0
100
AcDbBlockEnd
  0
BLOCK
  5
102
330
101
100
AcDbEntity
  8
0
100
AcDbBlockBegin
  2
SW_BLOCK_DIMENSION_14
 70
     0
 10
0.0
 20
0.0
 30
0.0
  3
SW_BLOCK_DIMENSION_14
  1

  0
INSERT
  5
104
330
101
100
AcDbEntity
  8
EBENE_1
 62
     0
100
AcDbBlockReference
  2
_ORIGIN
 10
16.3971707594
 20
5.1887726877
 30
0.0
 41
0.9483022837
 42
0.9483022837
 50
0.0
  0
LINE
  5
105
330
101
100
AcDbEntity
  8
EBENE_1
 62
     0
100
AcDbLine
 10
3.2925925916
 20
9.671990294
 30
0.0
 11
2.2342592711
 21
9.671990294
 31
0.0
  0
LINE
  5
106
330
101
100
AcDbEntity
  8
EBENE_1
 62
     0
100
AcDbLine
 10
2.2342592711
 20
9.671990294
 30
0.0
 11
2.2342592711
 21
4.9388883635
 31
0.0
  0
LINE
  5
107
330
101
100
AcDbEntity
  8
EBENE_1
 62
     0
100
AcDbLine
 10
2.2342592711
 20
4.9388883635
 30
0.0
 11
3.2925925916
 21
4.9388883635
 31
0.0
  0
LINE
  5
108
330
101
100
AcDbEntity
  8
EBENE_1
 62
     0
100
AcDbLine
 10
11.5240741288
 20
9.671990294
 30
0.0
 11
12.5824074494
 21
9.671990294
 31
0.0
  0
LINE
  5
109
330
101
100
AcDbEntity
  8
EBENE_1
 62
     0
100
AcDbLine
 10
12.5824074494
 20
9.671990294
 30
0.0
 11
12.5824074494
 21
4.9388883635
 31
0.0
  0
LINE
  5
10A
330
101
100
AcDbEntity
  8
EBENE_1
 62
     0
100
AcDbLine
 10
12.5824074494
 20
4.9388883635
 30
0.0
 11
11.5240741288
 21
4.9388883635
 31
0.0
  0
LINE
  5
10B
330
101
100
AcDbEntity
  8
EBENE_1
 62
     0
100
AcDbLine
 10
24.38463321
 20
5.1887726877
 30
0.0
 11
14.8166669533
 21
5.1887726877
 31
0.0
  0
MTEXT
  5
10C
330
101
100
AcDbEntity
  8
EBENE_1
 62
     0
100
AcDbMText
 10
1.190625
 20
4.0927900738
 30
0.0
 40
3.175
 41
0.0
 71
     1
 72
     1
  1

  7
SLDTEXTSTYLE0
 73
     1
 44
1.0
  0
MTEXT
  5
10D
330
101
100
AcDbEntity
  8
EBENE_1
 62
     0
100
AcDbMText
 10
3.2925925916
 20
9.0316784373
 30
0.0
 40
3.175
 41
0.0
 71
     1
 72
     1
  1
0,00
  7
SLDTEXTSTYLE0
 73
     1
 44
1.0
  0
MTEXT
  5
10E
330
101
100
AcDbEntity
  8
EBENE_1
 62
     0
100
AcDbMText
 10
6.2324074097
 20
4.0927898409
 30
0.0
 40
3.175
 41
0.0
 71
     1
 72
     1
  1
0
  7
SLDTEXTSTYLE0
 73
     1
 44
1.0
  0
MTEXT
  5
10F
330
101
100
AcDbEntity
  8
EBENE_1
 62
     0
100
AcDbMText
 10
14.8313658863
 20
4.0927900738
 30
0.0
 40
3.175
 41
0.0
 71
     1
 72
     1
  1

  7
SLDTEXTSTYLE0
 73
     1
 44
1.0
  0
ENDBLK
  5
103
330
101
100
AcDbEntity
  8
0
100
AcDbBlockEnd
  0
BLOCK
  5
112
330
111
100
AcDbEntity
  8
0
100
AcDbBlockBegin
  2
SW_BLOCK_DIMENSION_15
 70
     0
 10
0.0
 20
0.0
 30
0.0
  3
SW_BLOCK_DIMENSION_15
  1

  0
SOLID
  5
114
330
111
100
AcDbEntity
  8
EBENE_1
 62
     0
100
AcDbTrace
 10
16.3971707594
 20
5.1887726877
 30
0.0
 11
15.9230196175
 21
2.1067902658
 31
0.0
 12
16.8713219012
 22
2.1067902658
 32
0.0
 13
16.8713219012
 23
2.1067902658
 33
0.0
  0
LINE
  5
115
330
111
100
AcDbEntity
  8
EBENE_1
 62
     0
100
AcDbLine
 10
3.2925925916
 20
9.671990294
 30
0.0
 11
2.2342592711
 21
9.671990294
 31
0.0
  0
LINE
  5
116
330
111
100
AcDbEntity
  8
EBENE_1
 62
     0
100
AcDbLine
 10
2.2342592711
 20
9.671990294
 30
0.0
 11
2.2342592711
 21
4.9388883635
 31
0.0
  0
LINE
  5
117
330
111
100
AcDbEntity
  8
EBENE_1
 62
     0
100
AcDbLine
 10
2.2342592711
 20
4.9388883635
 30
0.0
 11
3.2925925916
 21
4.9388883635
 31
0.0
  0
LINE
  5
118
330
111
100
AcDbEntity
  8
EBENE_1
 62
     0
100
AcDbLine
 10
11.5240741288
 20
9.671990294
 30
0.0
 11
12.5824074494
 21
9.671990294
 31
0.0
  0
LINE
  5
119
330
111
100
AcDbEntity
  8
EBENE_1
 62
     0
100
AcDbLine
 10
12.5824074494
 20
9.671990294
 30
0.0
 11
12.5824074494
 21
4.9388883635
 31
0.0
  0
LINE
  5
11A
330
111
100
AcDbEntity
  8
EBENE_1
 62
     0
100
AcDbLine
 10
12.5824074494
 20
4.9388883635
 30
0.0
 11
11.5240741288
 21
4.9388883635
 31
0.0
  0
LINE
  5
11B
330
111
100
AcDbEntity
  8
EBENE_1
 62
     0
100
AcDbLine
 10
23.60463321
 20
5.1887726877
 30
0.0
 11
14.8166669533
 21
5.1887726877
 31
0.0
  0
LINE
  5
11C
330
111
100
AcDbEntity
  8
EBENE_1
 62
     0
100
AcDbLine
 10
16.3971707594
 20
-20.2112273123
 30
0.0
 11
16.3971707594
 21
5.1887726877
 31
0.0
  0
MTEXT
  5
11D
330
111
100
AcDbEntity
  8
EBENE_1
 62
     0
100
AcDbMText
 10
1.190625
 20
4.0927900738
 30
0.0
 40
3.175
 41
0.0
 71
     1
 72
     1
  1

  7
SLDTEXTSTYLE0
 73
     1
 44
1.0
  0
MTEXT
  5
11E
330
111
100
AcDbEntity
  8
EBENE_1
 62
     0
100
AcDbMText
 10
3.2925925916
 20
9.0316784373
 30
0.0
 40
3.175
 41
0.0
 71
     1
 72
     1
  1
1,00
  7
SLDTEXTSTYLE0
 73
     1
 44
1.0
  0
MTEXT
  5
11F
330
111
100
AcDbEntity
  8
EBENE_1
 62
     0
100
AcDbMText
 10
2.1166665247
 20
4.0927898409
 30
0.0
 40
3.175
 41
0.0
 71
     1
 72
     1
  1
25,40
  7
SLDTEXTSTYLE0
 73
     1
 44
1.0
  0
MTEXT
  5
120
330
111
100
AcDbEntity
  8
EBENE_1
 62
     0
100
AcDbMText
 10
14.8313658863
 20
4.0927900738
 30
0.0
 40
3.175
 41
0.0
 71
     1
 72
     1
  1

  7
SLDTEXTSTYLE0
 73
     1
 44
1.0
  0
ENDBLK
  5
113
330
111
100
AcDbEntity
  8
0
100
AcDbBlockEnd
  0
BLOCK
  5
123
330
122
100
AcDbEntity
  8
0
100
AcDbBlockBegin
  2
SW_BLOCK_DIMENSION_16
 70
     0
 10
0.0
 20
0.0
 30
0.0
  3
SW_BLOCK_DIMENSION_16
  1

  0
SOLID
  5
125
330
122
100
AcDbEntity
  8
EBENE_1
 62
     0
100
AcDbTrace
 10
16.3971707594
 20
5.1887726877
 30
0.0
 11
15.9230196175
 21
2.1067902658
 31
0.0
 12
16.8713219012
 22
2.1067902658
 32
0.0
 13
16.8713219012
 23
2.1067902658
 33
0.0
  0
LINE
  5
126
330
122
100
AcDbEntity
  8
EBENE_1
 62
     0
100
AcDbLine
 10
3.2925925916
 20
9.671990294
 30
0.0
 11
2.2342592711
 21
9.671990294
 31
0.0
  0
LINE
  5
127
330
122
100
AcDbEntity
  8
EBENE_1
 62
     0
100
AcDbLine
 10
2.2342592711
 20
9.671990294
 30
0.0
 11
2.2342592711
 21
4.9388883635
 31
0.0
  0
LINE
  5
128
330
122
100
AcDbEntity
  8
EBENE_1
 62
     0
100
AcDbLine
 10
2.2342592711
 20
4.9388883635
 30
0.0
 11
3.2925925916
 21
4.9388883635
 31
0.0
  0
LINE
  5
129
330
122
100
AcDbEntity
  8
EBENE_1
 62
     0
100
AcDbLine
 10
11.5240741288
 20
9.671990294
 30
0.0
 11
12.5824074494
 21
9.671990294
 31
0.0
  0
LINE
  5
12A
330
122
100
AcDbEntity
  8
EBENE_1
 62
     0
100
AcDbLine
 10
12.5824074494
 20
9.671990294
 30
0.0
 11
12.5824074494
 21
4.9388883635
 31
0.0
  0
LINE
  5
12B
330
122
100
AcDbEntity
  8
EBENE_1
 62
     0
100
AcDbLine
 10
12.5824074494
 20
4.9388883635
 30
0.0
 11
11.5240741288
 21
4.9388883635
 31
0.0
  0
LINE
  5
12C
330
122
100
AcDbEntity
  8
EBENE_1
 62
     0
100
AcDbLine
 10
23.60463321
 20
5.1887726877
 30
0.0
 11
14.8166669533
 21
5.1887726877
 31
0.0
  0
LINE
  5
12D
330
122
100
AcDbEntity
  8
EBENE_1
 62
     0
100
AcDbLine
 10
16.3971707594
 20
-20.2112273123
 30
0.0
 11
16.3971707594
 21
5.1887726877
 31
0.0
  0
MTEXT
  5
12E
330
122
100
AcDbEntity
  8
EBENE_1
 62
     0
100
AcDbMText
 10
1.190625
 20
4.0927900738
 30
0.0
 40
3.175
 41
0.0
 71
     1
 72
     1
  1

  7
SLDTEXTSTYLE0
 73
     1
 44
1.0
  0
MTEXT
  5
12F
330
122
100
AcDbEntity
  8
EBENE_1
 62
     0
100
AcDbMText
 10
3.2925925916
 20
9.0316784373
 30
0.0
 40
3.175
 41
0.0
 71
     1
 72
     1
  1
2,00
  7
SLDTEXTSTYLE0
 73
     1
 44
1.0
  0
MTEXT
  5
130
330
122
100
AcDbEntity
  8
EBENE_1
 62
     0
100
AcDbMText
 10
2.1166665247
 20
4.0927898409
 30
0.0
 40
3.175
 41
0.0
 71
     1
 72
     1
  1
50,80
  7
SLDTEXTSTYLE0
 73
     1
 44
1.0
  0
MTEXT
  5
131
330
122
100
AcDbEntity
  8
EBENE_1
 62
     0
100
AcDbMText
 10
14.8313658863
 20
4.0927900738
 30
0.0
 40
3.175
 41
0.0
 71
     1
 72
     1
  1

  7
SLDTEXTSTYLE0
 73
     1
 44
1.0
  0
ENDBLK
  5
124
330
122
100
AcDbEntity
  8
0
100
AcDbBlockEnd
  0
BLOCK
  5
134
330
133
100
AcDbEntity
  8
0
100
AcDbBlockBegin
  2
SW_BLOCK_DIMENSION_17
 70
     0
 10
0.0
 20
0.0
 30
0.0
  3
SW_BLOCK_DIMENSION_17
  1

  0
SOLID
  5
136
330
133
100
AcDbEntity
  8
EBENE_1
 62
     0
100
AcDbTrace
 10
16.3971707594
 20
5.1887726877
 30
0.0
 11
15.9230196175
 21
2.1067902658
 31
0.0
 12
16.8713219012
 22
2.1067902658
 32
0.0
 13
16.8713219012
 23
2.1067902658
 33
0.0
  0
LINE
  5
137
330
133
100
AcDbEntity
  8
EBENE_1
 62
     0
100
AcDbLine
 10
3.2925925916
 20
9.671990294
 30
0.0
 11
2.2342592711
 21
9.671990294
 31
0.0
  0
LINE
  5
138
330
133
100
AcDbEntity
  8
EBENE_1
 62
     0
100
AcDbLine
 10
2.2342592711
 20
9.671990294
 30
0.0
 11
2.2342592711
 21
4.9388883635
 31
0.0
  0
LINE
  5
139
330
133
100
AcDbEntity
  8
EBENE_1
 62
     0
100
AcDbLine
 10
2.2342592711
 20
4.9388883635
 30
0.0
 11
3.2925925916
 21
4.9388883635
 31
0.0
  0
LINE
  5
13A
330
133
100
AcDbEntity
  8
EBENE_1
 62
     0
100
AcDbLine
 10
11.5240741288
 20
9.671990294
 30
0.0
 11
12.5824074494
 21
9.671990294
 31
0.0
  0
LINE
  5
13B
330
133
100
AcDbEntity
  8
EBENE_1
 62
     0
100
AcDbLine
 10
12.5824074494
 20
9.671990294
 30
0.0
 11
12.5824074494
 21
4.9388883635
 31
0.0
  0
LINE
  5
13C
330
133
100
AcDbEntity
  8
EBENE_1
 62
     0
100
AcDbLine
 10
12.5824074494
 20
4.9388883635
 30
0.0
 11
11.5240741288
 21
4.9388883635
 31
0.0
  0
LINE
  5
13D
330
133
100
AcDbEntity
  8
EBENE_1
 62
     0
100
AcDbLine
 10
23.60463321
 20
5.1887726877
 30
0.0
 11
14.8166669533
 21
5.1887726877
 31
0.0
  0
LINE
  5
13E
330
133
100
AcDbEntity
  8
EBENE_1
 62
     0
100
AcDbLine
 10
16.3971707594
 20
-20.2112273123
 30
0.0
 11
16.3971707594
 21
5.1887726877
 31
0.0
  0
MTEXT
  5
13F
330
133
100
AcDbEntity
  8
EBENE_1
 62
     0
100
AcDbMText
 10
1.190625
 20
4.0927900738
 30
0.0
 40
3.175
 41
0.0
 71
     1
 72
     1
  1

  7
SLDTEXTSTYLE0
 73
     1
 44
1.0
  0
MTEXT
  5
140
330
133
100
AcDbEntity
  8
EBENE_1
 62
     0
100
AcDbMText
 10
3.2925925916
 20
9.0316784373
 30
0.0
 40
3.175
 41
0.0
 71
     1
 72
     1
  1
3,00
  7
SLDTEXTSTYLE0
 73
     1
 44
1.0
  0
MTEXT
  5
141
330
133
100
AcDbEntity
  8
EBENE_1
 62
     0
100
AcDbMText
 10
2.1166665247
 20
4.0927898409
 30
0.0
 40
3.175
 41
0.0
 71
     1
 72
     1
  1
76,20
  7
SLDTEXTSTYLE0
 73
     1
 44
1.0
  0
MTEXT
  5
142
330
133
100
AcDbEntity
  8
EBENE_1
 62
     0
100
AcDbMText
 10
14.8313658863
 20
4.0927900738
 30
0.0
 40
3.175
 41
0.0
 71
     1
 72
     1
  1

  7
SLDTEXTSTYLE0
 73
     1
 44
1.0
  0
ENDBLK
  5
135
330
133
100
AcDbEntity
  8
0
100
AcDbBlockEnd
  0
BLOCK
  5
145
330
144
100
AcDbEntity
  8
0
100
AcDbBlockBegin
  2
SW_BLOCK_DIMENSION_18
 70
     0
 10
0.0
 20
0.0
 30
0.0
  3
SW_BLOCK_DIMENSION_18
  1

  0
SOLID
  5
147
330
144
100
AcDbEntity
  8
EBENE_1
 62
     0
100
AcDbTrace
 10
16.8675417449
 20
5.1887726877
 30
0.0
 11
16.3933906031
 21
2.1067902658
 31
0.0
 12
17.3416928867
 22
2.1067902658
 32
0.0
 13
17.3416928867
 23
2.1067902658
 33
0.0
  0
LINE
  5
148
330
144
100
AcDbEntity
  8
EBENE_1
 62
     0
100
AcDbLine
 10
3.5277780844
 20
9.671990294
 30
0.0
 11
2.4694447638
 21
9.671990294
 31
0.0
  0
LINE
  5
149
330
144
100
AcDbEntity
  8
EBENE_1
 62
     0
100
AcDbLine
 10
2.4694447638
 20
9.671990294
 30
0.0
 11
2.4694447638
 21
4.9388883635
 31
0.0
  0
LINE
  5
14A
330
144
100
AcDbEntity
  8
EBENE_1
 62
     0
100
AcDbLine
 10
2.4694447638
 20
4.9388883635
 30
0.0
 11
3.5277780844
 21
4.9388883635
 31
0.0
  0
LINE
  5
14B
330
144
100
AcDbEntity
  8
EBENE_1
 62
     0
100
AcDbLine
 10
11.7592596216
 20
9.671990294
 30
0.0
 11
12.8175929422
 21
9.671990294
 31
0.0
  0
LINE
  5
14C
330
144
100
AcDbEntity
  8
EBENE_1
 62
     0
100
AcDbLine
 10
12.8175929422
 20
9.671990294
 30
0.0
 11
12.8175929422
 21
4.9388883635
 31
0.0
  0
LINE
  5
14D
330
144
100
AcDbEntity
  8
EBENE_1
 62
     0
100
AcDbLine
 10
12.8175929422
 20
4.9388883635
 30
0.0
 11
11.7592596216
 21
4.9388883635
 31
0.0
  0
LINE
  5
14E
330
144
100
AcDbEntity
  8
EBENE_1
 62
     0
100
AcDbLine
 10
24.0750041956
 20
5.1887726877
 30
0.0
 11
15.2870379388
 21
5.1887726877
 31
0.0
  0
LINE
  5
14F
330
144
100
AcDbEntity
  8
EBENE_1
 62
     0
100
AcDbLine
 10
16.8675417449
 20
-20.2112273123
 30
0.0
 11
16.8675417449
 21
5.1887726877
 31
0.0
  0
MTEXT
  5
150
330
144
100
AcDbEntity
  8
EBENE_1
 62
     0
100
AcDbMText
 10
1.190625
 20
4.0927900738
 30
0.0
 40
3.175
 41
0.0
 71
     1
 72
     1
  1

  7
SLDTEXTSTYLE0
 73
     1
 44
1.0
  0
MTEXT
  5
151
330
144
100
AcDbEntity
  8
EBENE_1
 62
     0
100
AcDbMText
 10
3.5277780844
 20
9.0316784373
 30
0.0
 40
3.175
 41
0.0
 71
     1
 72
     1
  1
4,00
  7
SLDTEXTSTYLE0
 73
     1
 44
1.0
  0
MTEXT
  5
152
330
144
100
AcDbEntity
  8
EBENE_1
 62
     0
100
AcDbMText
 10
1.1759259505
 20
4.0927898409
 30
0.0
 40
3.175
 41
0.0
 71
     1
 72
     1
  1
101,60
  7
SLDTEXTSTYLE0
 73
     1
 44
1.0
  0
MTEXT
  5
153
330
144
100
AcDbEntity
  8
EBENE_1
 62
     0
100
AcDbMText
 10
15.3017368719
 20
4.0927900738
 30
0.0
 40
3.175
 41
0.0
 71
     1
 72
     1
  1

  7
SLDTEXTSTYLE0
 73
     1
 44
1.0
  0
ENDBLK
  5
146
330
144
100
AcDbEntity
  8
0
100
AcDbBlockEnd
  0
BLOCK
  5
156
330
155
100
AcDbEntity
  8
0
100
AcDbBlockBegin
  2
SW_BLOCK_DIMENSION_19
 70
     0
 10
0.0
 20
0.0
 30
0.0
  3
SW_BLOCK_DIMENSION_19
  1

  0
SOLID
  5
158
330
155
100
AcDbEntity
  8
EBENE_1
 62
     0
100
AcDbTrace
 10
16.3971707594
 20
5.1887726877
 30
0.0
 11
15.9230196175
 21
2.1067902658
 31
0.0
 12
16.8713219012
 22
2.1067902658
 32
0.0
 13
16.8713219012
 23
2.1067902658
 33
0.0
  0
LINE
  5
159
330
155
100
AcDbEntity
  8
EBENE_1
 62
     0
100
AcDbLine
 10
3.2925925916
 20
9.671990294
 30
0.0
 11
2.2342592711
 21
9.671990294
 31
0.0
  0
LINE
  5
15A
330
155
100
AcDbEntity
  8
EBENE_1
 62
     0
100
AcDbLine
 10
2.2342592711
 20
9.671990294
 30
0.0
 11
2.2342592711
 21
4.9388883635
 31
0.0
  0
LINE
  5
15B
330
155
100
AcDbEntity
  8
EBENE_1
 62
     0
100
AcDbLine
 10
2.2342592711
 20
4.9388883635
 30
0.0
 11
3.2925925916
 21
4.9388883635
 31
0.0
  0
LINE
  5
15C
330
155
100
AcDbEntity
  8
EBENE_1
 62
     0
100
AcDbLine
 10
11.5240741288
 20
9.671990294
 30
0.0
 11
12.5824074494
 21
9.671990294
 31
0.0
  0
LINE
  5
15D
330
155
100
AcDbEntity
  8
EBENE_1
 62
     0
100
AcDbLine
 10
12.5824074494
 20
9.671990294
 30
0.0
 11
12.5824074494
 21
4.9388883635
 31
0.0
  0
LINE
  5
15E
330
155
100
AcDbEntity
  8
EBENE_1
 62
     0
100
AcDbLine
 10
12.5824074494
 20
4.9388883635
 30
0.0
 11
11.5240741288
 21
4.9388883635
 31
0.0
  0
LINE
  5
15F
330
155
100
AcDbEntity
  8
EBENE_1
 62
     0
100
AcDbLine
 10
23.60463321
 20
5.1887726877
 30
0.0
 11
14.8166669533
 21
5.1887726877
 31
0.0
  0
LINE
  5
160
330
155
100
AcDbEntity
  8
EBENE_1
 62
     0
100
AcDbLine
 10
16.3971707594
 20
-20.2112273123
 30
0.0
 11
16.3971707594
 21
5.1887726877
 31
0.0
  0
MTEXT
  5
161
330
155
100
AcDbEntity
  8
EBENE_1
 62
     0
100
AcDbMText
 10
1.190625
 20
4.0927900738
 30
0.0
 40
3.175
 41
0.0
 71
     1
 72
     1
  1

  7
SLDTEXTSTYLE0
 73
     1
 44
1.0
  0
MTEXT
  5
162
330
155
100
AcDbEntity
  8
EBENE_1
 62
     0
100
AcDbMText
 10
3.2925925916
 20
9.0316784373
 30
0.0
 40
3.175
 41
0.0
 71
     1
 72
     1
  1
5,00
  7
SLDTEXTSTYLE0
 73
     1
 44
1.0
  0
MTEXT
  5
163
330
155
100
AcDbEntity
  8
EBENE_1
 62
     0
100
AcDbMText
 10
3.8805556251
 20
4.0927898409
 30
0.0
 40
3.175
 41
0.0
 71
     1
 72
     1
  1
127
  7
SLDTEXTSTYLE0
 73
     1
 44
1.0
  0
MTEXT
  5
164
330
155
100
AcDbEntity
  8
EBENE_1
 62
     0
100
AcDbMText
 10
14.8313658863
 20
4.0927900738
 30
0.0
 40
3.175
 41
0.0
 71
     1
 72
     1
  1

  7
SLDTEXTSTYLE0
 73
     1
 44
1.0
  0
ENDBLK
  5
157
330
155
100
AcDbEntity
  8
0
100
AcDbBlockEnd
  0
BLOCK
  5
167
330
166
100
AcDbEntity
  8
0
100
AcDbBlockBegin
  2
SW_NOTE_0
 70
     0
 10
0.0
 20
0.0
 30
0.0
  3
SW_NOTE_0
  1

  0
MTEXT
  5
169
330
166
100
AcDbEntity
  8
EBENE_1
 62
     0
100
AcDbMText
 10
6.7138020833
 20
4.7749217527
 30
0.0
 40
3.7041666667
 41
0.0
 71
     2
 72
     1
  1
(Inch)
  7
SLDTEXTSTYLE0
 73
     1
 44
1.0
  0
MTEXT
  5
16A
330
166
100
AcDbEntity
  8
EBENE_1
 62
     0
100
AcDbMText
 10
6.7309508326
 20
-1.1639672404
 30
0.0
 40
3.7041666667
 41
0.0
 71
     2
 72
     1
  1
mm
  7
SLDTEXTSTYLE0
 73
     1
 44
1.0
  0
ENDBLK
  5
168
330
166
100
AcDbEntity
  8
0
100
AcDbBlockEnd
  0
BLOCK
  5
172
330
171
100
AcDbEntity
  8
0
100
AcDbBlockBegin
  2
SW_NOTE_1
 70
     0
 10
0.0
 20
0.0
 30
0.0
  3
SW_NOTE_1
  1

  0
MTEXT
  5
174
330
171
100
AcDbEntity
  8
0
  6
Continuous
 62
     0
370
     0
100
AcDbMText
 10
19.893359375
 20
4.0927900738
 30
0.0
 40
3.175
 41
0.0
 71
     2
 72
     1
  1
ABP-Beyerle GmbH
  7
SLDTEXTSTYLE0
 73
     1
 44
1.0
  0
MTEXT
  5
175
330
171
100
AcDbEntity
  8
0
  6
Continuous
 62
     0
370
     0
100
AcDbMText
 10
20.6558884293
 20
-0.1405432084
 30
0.0
 40
3.175
 41
0.0
 71
     2
 72
     1
  1
Im Schollengarten 24b, 76646 Bruchsal
  7
SLDTEXTSTYLE0
 73
     1
 44
1.0
  0
MTEXT
  5
176
330
171
100
AcDbEntity
  8
0
  6
Continuous
 62
     0
370
     0
100
AcDbMText
 10
20.7863491923
 20
-4.3738764906
 30
0.0
 40
3.175
 41
0.0
 71
     2
 72
     1
  1
Tel. +49 (0)7251-9127-0, Fax. +49 (0)7251-9127-29
  7
SLDTEXTSTYLE0
 73
     1
 44
1.0
  0
MTEXT
  5
177
330
171
100
AcDbEntity
  8
0
  6
Continuous
 62
     0
370
     0
100
AcDbMText
 10
20.8392552227
 20
-8.6072097727
 30
0.0
 40
3.175
 41
0.0
 71
     2
 72
     1
  1
info@abp-beyerle.de, www.abp-beyerle.de
  7
SLDTEXTSTYLE0
 73
     1
 44
1.0
  0
ENDBLK
  5
173
330
171
100
AcDbEntity
  8
0
100
AcDbBlockEnd
  0
ENDSEC
  0
SECTION
  2
ENTITIES
  0
INSERT
  5
16D
330
1F
100
AcDbEntity
  8
EBENE_1
100
AcDbBlockReference
  2
Block1
 10
19.561342692
 20
-6.9223244521
 30
0.0
  0
MTEXT
  5
16F
330
1F
100
AcDbEntity
  8
0
  6
Continuous
 62
     7
370
     0
100
AcDbMText
 10
402.5
 20
14.7189135832
 30
0.0
 40
6.35
 41
0.0
 71
     1
 72
     1
  1
1:1
  7
SLDTEXTSTYLE1
 73
     1
 44
1.0
  0
MTEXT
  5
170
330
1F
100
AcDbEntity
  8
0
  6
Continuous
 62
     7
370
     0
100
AcDbMText
 10
168.4090458961
 20
14.7189131175
 30
0.0
 40
6.35
 41
0.0
 71
     1
 72
     1
  1
USO123DS-EF
  7
SLDTEXTSTYLE1
 73
     1
 44
1.0
  0
INSERT
  5
178
330
1F
100
AcDbEntity
  8
0
  6
Continuous
 62
     7
370
     0
100
AcDbBlockReference
  2
SW_NOTE_1
 10
35.4202146835
 20
20.1681939512
 30
0.0
  0
LINE
  5
179
330
1F
100
AcDbEntity
  8
0
  6
Continuous
 62
     7
370
    15
100
AcDbLine
 10
138.3033080238
 20
175.1467709986
 30
0.0
 11
138.3643208283
 21
175.0857581941
 31
0.0
  0
LINE
  5
17A
330
1F
100
AcDbEntity
  8
0
  6
Continuous
 62
     7
370
    15
100
AcDbLine
 10
141.3643194574
 20
175.0857581941
 30
0.0
 11
141.4253322619
 21
175.1467709986
 31
0.0
  0
LINE
  5
17B
330
1F
100
AcDbEntity
  8
0
  6
Continuous
 62
     7
370
    15
100
AcDbLine
 10
283.303311302
 20
175.1467709986
 30
0.0
 11
283.3643241065
 21
175.0857581941
 31
0.0
  0
LINE
  5
17C
330
1F
100
AcDbEntity
  8
0
  6
Continuous
 62
     7
370
    15
100
AcDbLine
 10
286.3643227356
 20
175.0857581941
 30
0.0
 11
286.4253355401
 21
175.1467709986
 31
0.0
  0
ARC
  5
17D
330
1F
100
AcDbEntity
  8
0
  6
Continuous
 62
     7
370
    15
100
AcDbCircle
 10
212.364321782
 20
326.5857573597
 30
0.0
 40
28.94999999999997
100
AcDbArc
 50
298.3083127821
 51
241.6916872179
  0
ARC
  5
17E
330
1F
100
AcDbEntity
  8
0
  6
Continuous
 62
     7
370
    15
100
AcDbCircle
 10
212.364321782
 20
326.5857573597
 30
0.0
 40
28.99999999999997
100
AcDbArc
 50
298.2578834209
 51
241.7421165791
  0
CIRCLE
  5
17F
330
1F
100
AcDbEntity
  8
0
  6
Continuous
 62
     7
370
    15
100
AcDbCircle
 10
212.364321782
 20
326.5857573597
 30
0.0
 40
15.0
  0
CIRCLE
  5
180
330
1F
100
AcDbEntity
  8
0
  6
Continuous
 62
     7
370
    15
100
AcDbCircle
 10
212.364321782
 20
326.5857573597
 30
0.0
 40
12.99999999999998
  0
CIRCLE
  5
181
330
1F
100
AcDbEntity
  8
0
  6
Continuous
 62
     7
370
    15
100
AcDbCircle
 10
212.5206390048
 20
333.3339471114
 30
0.0
 40
1.249999999999985
  0
CIRCLE
  5
182
330
1F
100
AcDbEntity
  8
0
  6
Continuous
 62
     7
370
    15
100
AcDbCircle
 10
205.6161320302
 20
326.7420745825
 30
0.0
 40
1.249999999999985
  0
CIRCLE
  5
183
330
1F
100
AcDbEntity
  8
0
  6
Continuous
 62
     7
370
    15
100
AcDbCircle
 10
212.2080045591
 20
319.8375676079
 30
0.0
 40
1.249999999999983
  0
CIRCLE
  5
184
330
1F
100
AcDbEntity
  8
0
  6
Continuous
 62
     7
370
    15
100
AcDbCircle
 10
219.1125115337
 20
326.4294401368
 30
0.0
 40
1.250000000000013
  0
CIRCLE
  5
185
330
1F
100
AcDbEntity
  8
0
  6
Continuous
 62
     7
370
    15
100
AcDbCircle
 10
212.364321782
 20
266.5857573597
 30
0.0
 40
15.0
  0
CIRCLE
  5
186
330
1F
100
AcDbEntity
  8
0
  6
Continuous
 62
     7
370
    15
100
AcDbCircle
 10
212.364321782
 20
266.5857573597
 30
0.0
 40
13.0
  0
CIRCLE
  5
187
330
1F
100
AcDbEntity
  8
0
  6
Continuous
 62
     7
370
    15
100
AcDbCircle
 10
219.114321782
 20
266.5857573597
 30
0.0
 40
1.25
  0
CIRCLE
  5
188
330
1F
100
AcDbEntity
  8
0
  6
Continuous
 62
     7
370
    15
100
AcDbCircle
 10
212.364321782
 20
259.8357573597
 30
0.0
 40
1.25
  0
CIRCLE
  5
189
330
1F
100
AcDbEntity
  8
0
  6
Continuous
 62
     7
370
    15
100
AcDbCircle
 10
205.614321782
 20
266.5857573597
 30
0.0
 40
1.25
  0
CIRCLE
  5
18A
330
1F
100
AcDbEntity
  8
0
  6
Continuous
 62
     7
370
    15
100
AcDbCircle
 10
212.364321782
 20
273.3357573597
 30
0.0
 40
1.25
  0
CIRCLE
  5
18B
330
1F
100
AcDbEntity
  8
0
  6
Continuous
 62
     7
370
    15
100
AcDbCircle
 10
284.864321782
 20
197.5857573597
 30
0.0
 40
14.99999999999998
  0
CIRCLE
  5
18C
330
1F
100
AcDbEntity
  8
0
  6
Continuous
 62
     7
370
    15
100
AcDbCircle
 10
284.864321782
 20
197.5857573597
 30
0.0
 40
13.00000000000001
  0
CIRCLE
  5
18D
330
1F
100
AcDbEntity
  8
0
  6
Continuous
 62
     7
370
    15
100
AcDbCircle
 10
287.6251805761
 20
191.4261990379
 30
0.0
 40
1.24999999999996
  0
CIRCLE
  5
18E
330
1F
100
AcDbEntity
  8
0
  6
Continuous
 62
     7
370
    15
100
AcDbCircle
 10
291.0238801037
 20
200.3466161538
 30
0.0
 40
1.250000000000012
  0
CIRCLE
  5
18F
330
1F
100
AcDbEntity
  8
0
  6
Continuous
 62
     7
370
    15
100
AcDbCircle
 10
282.1034629878
 20
203.7453156814
 30
0.0
 40
1.24999999999996
  0
CIRCLE
  5
190
330
1F
100
AcDbEntity
  8
0
  6
Continuous
 62
     7
370
    15
100
AcDbCircle
 10
278.7047634602
 20
194.8248985655
 30
0.0
 40
1.24999999999996
  0
CIRCLE
  5
191
330
1F
100
AcDbEntity
  8
0
  6
Continuous
 62
     7
370
    15
100
AcDbCircle
 10
139.864321782
 20
197.5857573597
 30
0.0
 40
15.00000000000001
  0
CIRCLE
  5
192
330
1F
100
AcDbEntity
  8
0
  6
Continuous
 62
     7
370
    15
100
AcDbCircle
 10
139.864321782
 20
197.5857573597
 30
0.0
 40
13.0
  0
CIRCLE
  5
193
330
1F
100
AcDbEntity
  8
0
  6
Continuous
 62
     7
370
    15
100
AcDbCircle
 10
139.864321782
 20
204.3357573597
 30
0.0
 40
1.25
  0
CIRCLE
  5
194
330
1F
100
AcDbEntity
  8
0
  6
Continuous
 62
     7
370
    15
100
AcDbCircle
 10
133.114321782
 20
197.5857573597
 30
0.0
 40
1.25
  0
CIRCLE
  5
195
330
1F
100
AcDbEntity
  8
0
  6
Continuous
 62
     7
370
    15
100
AcDbCircle
 10
139.864321782
 20
190.8357573597
 30
0.0
 40
1.250000000000028
  0
CIRCLE
  5
196
330
1F
100
AcDbEntity
  8
0
  6
Continuous
 62
     7
370
    15
100
AcDbCircle
 10
146.614321782
 20
197.5857573597
 30
0.0
 40
1.249999999999972
  0
LINE
  5
197
330
1F
100
AcDbEntity
  8
0
  6
Continuous
 62
     7
370
    15
100
AcDbLine
 10
141.3643194574
 20
175.0857581941
 30
0.0
 11
138.3643208283
 21
175.0857581941
 31
0.0
  0
LINE
  5
198
330
1F
100
AcDbEntity
  8
0
  6
Continuous
 62
     7
370
    15
100
AcDbLine
 10
286.3643227356
 20
175.0857581941
 30
0.0
 11
283.3643241065
 21
175.0857581941
 31
0.0
  0
ARC
  5
199
330
1F
100
AcDbEntity
  8
0
  6
Continuous
 62
     7
370
    15
100
AcDbCircle
 10
100.658821782
 20
303.2233949972
 30
0.0
 40
98.00000000000001
100
AcDbArc
 50
295.5939986742
 51
5.3973436848
  0
ARC
  5
19A
330
1F
100
AcDbEntity
  8
0
  6
Continuous
 62
     7
370
    15
100
AcDbCircle
 10
212.364321782
 20
326.5857573597
 30
0.0
 40
20.0
100
AcDbArc
 50
314.9913483372
 51
225.0086516628
  0
ARC
  5
19B
330
1F
100
AcDbEntity
  8
0
  6
Continuous
 62
     7
370
    15
100
AcDbCircle
 10
324.069821782
 20
303.2233949972
 30
0.0
 40
98.0
100
AcDbArc
 50
174.6026563152
 51
244.4060013258
  0
ARC
  5
19C
330
1F
100
AcDbEntity
  8
0
  6
Continuous
 62
     7
370
    15
100
AcDbCircle
 10
284.864321782
 20
195.0857573597
 30
0.0
 40
20.00000000000006
100
AcDbArc
 50
178.4686968062
 51
99.0027749637
  0
ARC
  5
19D
330
1F
100
AcDbEntity
  8
0
  6
Continuous
 62
     7
370
    15
100
AcDbCircle
 10
212.364321782
 20
166.5857573597
 30
0.0
 40
60.00000000000002
100
AcDbArc
 50
28.9409326669
 51
151.0590673331
  0
ARC
  5
19E
330
1F
100
AcDbEntity
  8
0
  6
Continuous
 62
     7
370
    15
100
AcDbCircle
 10
139.864321782
 20
195.0857573597
 30
0.0
 40
19.99999999999998
100
AcDbArc
 50
80.9972250363
 51
1.5313031938
  0
LINE
  5
19F
330
1F
100
AcDbEntity
  8
0
  6
Continuous
 62
     7
370
    15
100
AcDbLine
 10
49.3440338157
 20
341.5857603399
 30
0.0
 11
48.3440355144
 21
341.5857603399
 31
0.0
  0
LINE
  5
1A0
330
1F
100
AcDbEntity
  8
0
  6
Continuous
 62
     7
370
    15
100
AcDbLine
 10
48.3440355144
 20
311.5857591478
 30
0.0
 11
49.3440338157
 21
311.5857591478
 31
0.0
  0
LINE
  5
1A1
330
1F
100
AcDbEntity
  8
0
  6
Continuous
 62
     7
370
    15
100
AcDbLine
 10
49.3440338157
 20
311.5857591478
 30
0.0
 11
51.3440341435
 21
313.5857557503
 31
0.0
  0
LINE
  5
1A2
330
1F
100
AcDbEntity
  8
0
  6
Continuous
 62
     7
370
    15
100
AcDbLine
 10
51.3440341435
 20
339.5857562868
 30
0.0
 11
49.3440338157
 21
341.5857603399
 31
0.0
  0
LINE
  5
1A3
330
1F
100
AcDbEntity
  8
0
  6
Continuous
 62
     7
370
    15
100
AcDbLine
 10
47.4740349434
 20
336.1657609789
 30
0.0
 11
47.3440334878
 21
336.035755798
 31
0.0
  0
LINE
  5
1A4
330
1F
100
AcDbEntity
  8
0
  6
Continuous
 62
     7
370
    15
100
AcDbLine
 10
47.3440334878
 20
317.1357562391
 30
0.0
 11
47.4740349434
 21
317.0057585088
 31
0.0
  0
LINE
  5
1A5
330
1F
100
AcDbEntity
  8
0
  6
Continuous
 62
     7
370
    15
100
AcDbLine
 10
48.3440355144
 20
336.3357608763
 30
0.0
 11
47.9740359567
 21
336.3357608763
 31
0.0
  0
LINE
  5
1A6
330
1F
100
AcDbEntity
  8
0
  6
Continuous
 62
     7
370
    15
100
AcDbLine
 10
47.9740359567
 20
316.8357586114
 30
0.0
 11
48.3440355144
 21
316.8357586114
 31
0.0
  0
LINE
  5
1A7
330
1F
100
AcDbEntity
  8
0
  6
Continuous
 62
     7
370
    15
100
AcDbLine
 10
21.6440352357
 20
341.5857603399
 30
0.0
 11
21.344034814
 21
341.2857552616
 31
0.0
  0
LINE
  5
1A8
330
1F
100
AcDbEntity
  8
0
  6
Continuous
 62
     7
370
    15
100
AcDbLine
 10
21.344034814
 20
311.8857567755
 30
0.0
 11
21.6440352357
 21
311.5857591478
 31
0.0
  0
LINE
  5
1A9
330
1F
100
AcDbEntity
  8
0
  6
Continuous
 62
     7
370
    15
100
AcDbLine
 10
21.6440352357
 20
311.5857591478
 30
0.0
 11
28.0440346084
 21
311.5857591478
 31
0.0
  0
LINE
  5
1AA
330
1F
100
AcDbEntity
  8
0
  6
Continuous
 62
     7
370
    15
100
AcDbLine
 10
28.0440346084
 20
341.5857603399
 30
0.0
 11
21.6440352357
 21
341.5857603399
 31
0.0
  0
LINE
  5
1AB
330
1F
100
AcDbEntity
  8
0
  6
Continuous
 62
     7
370
    15
100
AcDbLine
 10
28.0440346084
 20
311.5857591478
 30
0.0
 11
28.3440359614
 21
311.8857567755
 31
0.0
  0
LINE
  5
1AC
330
1F
100
AcDbEntity
  8
0
  6
Continuous
 62
     7
370
    15
100
AcDbLine
 10
28.3440359614
 20
341.2857552616
 30
0.0
 11
28.0440346084
 21
341.5857603399
 31
0.0
  0
LINE
  5
1AD
330
1F
100
AcDbEntity
  8
0
  6
Continuous
 62
     7
370
    15
100
AcDbLine
 10
28.3440359614
 20
316.8357586114
 30
0.0
 11
28.7140355192
 21
316.8357586114
 31
0.0
  0
LINE
  5
1AE
330
1F
100
AcDbEntity
  8
0
  6
Continuous
 62
     7
370
    15
100
AcDbLine
 10
28.7140355192
 20
336.3357608763
 30
0.0
 11
28.3440359614
 21
336.3357608763
 31
0.0
  0
LINE
  5
1AF
330
1F
100
AcDbEntity
  8
0
  6
Continuous
 62
     7
370
    15
100
AcDbLine
 10
29.2140346698
 20
317.0057585088
 30
0.0
 11
29.3440342627
 21
317.1357562391
 31
0.0
  0
LINE
  5
1B0
330
1F
100
AcDbEntity
  8
0
  6
Continuous
 62
     7
370
    15
100
AcDbLine
 10
29.3440342627
 20
336.035755798
 30
0.0
 11
29.2140346698
 21
336.1657609789
 31
0.0
  0
LINE
  5
1B1
330
1F
100
AcDbEntity
  8
0
  6
Continuous
 62
     7
370
    15
100
AcDbLine
 10
47.9740359567
 20
355.535758063
 30
0.0
 11
47.4740349434
 21
355.535758063
 31
0.0
  0
LINE
  5
1B2
330
1F
100
AcDbEntity
  8
0
  6
Continuous
 62
     7
370
    15
100
AcDbLine
 10
47.4740349434
 20
297.6357576994
 30
0.0
 11
47.9740359567
 21
297.6357576994
 31
0.0
  0
LINE
  5
1B3
330
1F
100
AcDbEntity
  8
0
  6
Continuous
 62
     7
370
    15
100
AcDbLine
 10
28.7140355192
 20
297.6357576994
 30
0.0
 11
29.2140346698
 21
297.6357576994
 31
0.0
  0
LINE
  5
1B4
330
1F
100
AcDbEntity
  8
0
  6
Continuous
 62
     7
370
    15
100
AcDbLine
 10
29.2140346698
 20
355.535758063
 30
0.0
 11
28.7140355192
 21
355.535758063
 31
0.0
  0
LINE
  5
1B5
330
1F
100
AcDbEntity
  8
0
  6
Continuous
 62
     7
370
    15
100
AcDbLine
 10
27.7591430328
 20
201.27798371
 30
0.0
 11
27.491154962
 21
200.8952548353
 31
0.0
  0
LINE
  5
1B6
330
1F
100
AcDbEntity
  8
0
  6
Continuous
 62
     7
370
    15
100
AcDbLine
 10
27.491154962
 20
194.2762558905
 30
0.0
 11
27.7591430328
 21
193.8935344664
 31
0.0
  0
LINE
  5
1B7
330
1F
100
AcDbEntity
  8
0
  6
Continuous
 62
     7
370
    15
100
AcDbLine
 10
26.7375082455
 20
201.5857597438
 30
0.0
 11
26.3440347023
 21
201.0238220541
 31
0.0
  0
LINE
  5
1B8
330
1F
100
AcDbEntity
  8
0
  6
Continuous
 62
     7
370
    15
100
AcDbLine
 10
26.3440347023
 20
194.1476961223
 30
0.0
 11
26.7375082455
 21
193.5857584325
 31
0.0
  0
LINE
  5
1B9
330
1F
100
AcDbEntity
  8
0
  6
Continuous
 62
     7
370
    15
100
AcDbLine
 10
27.00766071
 20
201.5857597438
 30
0.0
 11
26.7375082455
 21
201.5857597438
 31
0.0
  0
LINE
  5
1BA
330
1F
100
AcDbEntity
  8
0
  6
Continuous
 62
     7
370
    15
100
AcDbLine
 10
26.7375082455
 20
193.5857584325
 30
0.0
 11
27.00766071
 21
193.5857584325
 31
0.0
  0
LINE
  5
1BB
330
1F
100
AcDbEntity
  8
0
  6
Continuous
 62
     7
370
    15
100
AcDbLine
 10
27.00766071
 20
193.5857584325
 30
0.0
 11
27.491154962
 21
194.2762558905
 31
0.0
  0
LINE
  5
1BC
330
1F
100
AcDbEntity
  8
0
  6
Continuous
 62
     7
370
    15
100
AcDbLine
 10
27.491154962
 20
200.8952548353
 30
0.0
 11
27.00766071
 21
201.5857597438
 31
0.0
  0
LINE
  5
1BD
330
1F
100
AcDbEntity
  8
0
  6
Continuous
 62
     7
370
    15
100
AcDbLine
 10
48.0390422724
 20
193.5857584325
 30
0.0
 11
48.5225365243
 21
194.2762558905
 31
0.0
  0
LINE
  5
1BE
330
1F
100
AcDbEntity
  8
0
  6
Continuous
 62
     7
370
    15
100
AcDbLine
 10
48.5225365243
 20
200.8952548353
 30
0.0
 11
48.0390422724
 21
201.5857597438
 31
0.0
  0
LINE
  5
1BF
330
1F
100
AcDbEntity
  8
0
  6
Continuous
 62
     7
370
    15
100
AcDbLine
 10
49.2761813782
 20
201.5857597438
 30
0.0
 11
49.006027051
 21
201.5857597438
 31
0.0
  0
LINE
  5
1C0
330
1F
100
AcDbEntity
  8
0
  6
Continuous
 62
     7
370
    15
100
AcDbLine
 10
49.006027051
 20
193.5857584325
 30
0.0
 11
49.2761813782
 21
193.5857584325
 31
0.0
  0
LINE
  5
1C1
330
1F
100
AcDbEntity
  8
0
  6
Continuous
 62
     7
370
    15
100
AcDbLine
 10
49.006027051
 20
201.5857597438
 30
0.0
 11
48.5225365243
 21
200.8952548353
 31
0.0
  0
LINE
  5
1C2
330
1F
100
AcDbEntity
  8
0
  6
Continuous
 62
     7
370
    15
100
AcDbLine
 10
48.5225365243
 20
194.2762558905
 30
0.0
 11
49.006027051
 21
193.5857584325
 31
0.0
  0
LINE
  5
1C3
330
1F
100
AcDbEntity
  8
0
  6
Continuous
 62
     7
370
    15
100
AcDbLine
 10
47.7688879452
 20
201.5857597438
 30
0.0
 11
47.7591425858
 21
201.5718420593
 31
0.0
  0
LINE
  5
1C4
330
1F
100
AcDbEntity
  8
0
  6
Continuous
 62
     7
370
    15
100
AcDbLine
 10
47.7591425858
 20
193.5996761171
 30
0.0
 11
47.7688879452
 21
193.5857584325
 31
0.0
  0
LINE
  5
1C5
330
1F
100
AcDbEntity
  8
0
  6
Continuous
 62
     7
370
    15
100
AcDbLine
 10
48.0390422724
 20
201.5857597438
 30
0.0
 11
47.7688879452
 21
201.5857597438
 31
0.0
  0
LINE
  5
1C6
330
1F
100
AcDbEntity
  8
0
  6
Continuous
 62
     7
370
    15
100
AcDbLine
 10
47.7688879452
 20
193.5857584325
 30
0.0
 11
48.0390422724
 21
193.5857584325
 31
0.0
  0
LINE
  5
1C7
330
1F
100
AcDbEntity
  8
0
  6
Continuous
 62
     7
370
    15
100
AcDbLine
 10
49.8440348289
 20
201.0157381741
 30
0.0
 11
49.7596756301
 21
200.8952548353
 31
0.0
  0
LINE
  5
1C8
330
1F
100
AcDbEntity
  8
0
  6
Continuous
 62
     7
370
    15
100
AcDbLine
 10
49.7596756301
 20
194.2762558905
 30
0.0
 11
49.8440348289
 21
194.1557800023
 31
0.0
  0
LINE
  5
1C9
330
1F
100
AcDbEntity
  8
0
  6
Continuous
 62
     7
370
    15
100
AcDbLine
 10
49.2761813782
 20
193.5857584325
 30
0.0
 11
49.7596756301
 21
194.2762558905
 31
0.0
  0
LINE
  5
1CA
330
1F
100
AcDbEntity
  8
0
  6
Continuous
 62
     7
370
    15
100
AcDbLine
 10
49.7596756301
 20
200.8952548353
 30
0.0
 11
49.2761813782
 21
201.5857597438
 31
0.0
  0
LINE
  5
1CB
330
1F
100
AcDbEntity
  8
0
  6
Continuous
 62
     7
370
    15
100
AcDbLine
 10
29.3440342627
 20
297.585756853
 30
0.0
 11
30.3123601458
 21
297.585756853
 31
0.0
  0
LINE
  5
1CC
330
1F
100
AcDbEntity
  8
0
  6
Continuous
 62
     7
370
    15
100
AcDbLine
 10
30.3123601458
 20
355.5857589094
 30
0.0
 11
29.3440342627
 21
355.5857589094
 31
0.0
  0
ARC
  5
1CD
330
1F
100
AcDbEntity
  8
0
  6
Continuous
 62
     7
370
    15
100
AcDbCircle
 10
38.3179836143
 20
287.9857573597
 30
0.0
 40
12.50000000000007
100
AcDbArc
 50
50.1746287392
 51
129.8253712608
  0
ARC
  5
1CE
330
1F
100
AcDbEntity
  8
0
  6
Continuous
 62
     7
370
    15
100
AcDbCircle
 10
38.3179836143
 20
365.1857573597
 30
0.0
 40
12.49999999999998
100
AcDbArc
 50
230.1746287392
 51
309.8253712608
  0
LINE
  5
1CF
330
1F
100
AcDbEntity
  8
0
  6
Continuous
 62
     7
370
    15
100
AcDbLine
 10
46.3236056946
 20
297.585756853
 30
0.0
 11
47.3440334878
 21
297.585756853
 31
0.0
  0
LINE
  5
1D0
330
1F
100
AcDbEntity
  8
0
  6
Continuous
 62
     7
370
    15
100
AcDbLine
 10
47.3440334878
 20
355.5857589094
 30
0.0
 11
46.3236056946
 21
355.5857589094
 31
0.0
  0
LINE
  5
1D1
330
1F
100
AcDbEntity
  8
0
  6
Continuous
 62
     7
370
    15
100
AcDbLine
 10
9.3440349426
 20
341.5857603399
 30
0.0
 11
7.3440348476
 21
339.5857562868
 31
0.0
  0
LINE
  5
1D2
330
1F
100
AcDbEntity
  8
0
  6
Continuous
 62
     7
370
    15
100
AcDbLine
 10
7.3440348476
 20
313.5857557503
 30
0.0
 11
9.3440349426
 21
311.5857591478
 31
0.0
  0
LINE
  5
1D3
330
1F
100
AcDbEntity
  8
0
  6
Continuous
 62
     7
370
    15
100
AcDbLine
 10
9.3440349426
 20
311.5857591478
 30
0.0
 11
11.3440350376
 21
311.5857591478
 31
0.0
  0
LINE
  5
1D4
330
1F
100
AcDbEntity
  8
0
  6
Continuous
 62
     7
370
    15
100
AcDbLine
 10
11.3440350376
 20
341.5857603399
 30
0.0
 11
9.3440349426
 21
341.5857603399
 31
0.0
  0
LINE
  5
1D5
330
1F
100
AcDbEntity
  8
0
  6
Continuous
 62
     7
370
    15
100
AcDbLine
 10
17.5440352156
 20
341.5857603399
 30
0.0
 11
17.3440350897
 21
341.3857569543
 31
0.0
  0
LINE
  5
1D6
330
1F
100
AcDbEntity
  8
0
  6
Continuous
 62
     7
370
    15
100
AcDbLine
 10
17.3440350897
 20
311.785758808
 30
0.0
 11
17.5440352156
 21
311.5857591478
 31
0.0
  0
LINE
  5
1D7
330
1F
100
AcDbEntity
  8
0
  6
Continuous
 62
     7
370
    15
100
AcDbLine
 10
17.5440352156
 20
311.5857591478
 30
0.0
 11
21.1440351538
 21
311.5857591478
 31
0.0
  0
LINE
  5
1D8
330
1F
100
AcDbEntity
  8
0
  6
Continuous
 62
     7
370
    15
100
AcDbLine
 10
21.1440351538
 20
341.5857603399
 30
0.0
 11
17.5440352156
 21
341.5857603399
 31
0.0
  0
LINE
  5
1D9
330
1F
100
AcDbEntity
  8
0
  6
Continuous
 62
     7
370
    15
100
AcDbLine
 10
21.1440351538
 20
311.5857591478
 30
0.0
 11
21.344034814
 21
311.785758808
 31
0.0
  0
LINE
  5
1DA
330
1F
100
AcDbEntity
  8
0
  6
Continuous
 62
     7
370
    15
100
AcDbLine
 10
21.344034814
 20
341.3857569543
 30
0.0
 11
21.1440351538
 21
341.5857603399
 31
0.0
  0
LINE
  5
1DB
330
1F
100
AcDbEntity
  8
0
  6
Continuous
 62
     7
370
    15
100
AcDbLine
 10
17.5440352156
 20
274.5857577396
 30
0.0
 11
17.3440350897
 21
274.3857571481
 31
0.0
  0
LINE
  5
1DC
330
1F
100
AcDbEntity
  8
0
  6
Continuous
 62
     7
370
    15
100
AcDbLine
 10
17.3440350897
 20
258.7857575713
 30
0.0
 11
17.5440352156
 21
258.5857569797
 31
0.0
  0
LINE
  5
1DD
330
1F
100
AcDbEntity
  8
0
  6
Continuous
 62
     7
370
    15
100
AcDbLine
 10
17.5440352156
 20
258.5857569797
 30
0.0
 11
43.3440365575
 21
258.5857569797
 31
0.0
  0
LINE
  5
1DE
330
1F
100
AcDbEntity
  8
0
  6
Continuous
 62
     7
370
    15
100
AcDbLine
 10
43.3440365575
 20
274.5857577396
 30
0.0
 11
17.5440352156
 21
274.5857577396
 31
0.0
  0
LINE
  5
1DF
330
1F
100
AcDbEntity
  8
0
  6
Continuous
 62
     7
370
    15
100
AcDbLine
 10
44.6817585013
 20
274.5857577396
 30
0.0
 11
43.3440365575
 21
274.5857577396
 31
0.0
  0
LINE
  5
1E0
330
1F
100
AcDbEntity
  8
0
  6
Continuous
 62
     7
370
    15
100
AcDbLine
 10
43.3440365575
 20
258.5857569797
 30
0.0
 11
44.6817585013
 21
258.5857569797
 31
0.0
  0
ARC
  5
1E1
330
1F
100
AcDbEntity
  8
0
  6
Continuous
 62
     7
370
    15
100
AcDbCircle
 10
47.8440350376
 20
276.0857573597
 30
0.0
 40
3.499999999999999
100
AcDbArc
 50
205.3769335252
 51
334.6230664748
  0
ARC
  5
1E2
330
1F
100
AcDbEntity
  8
0
  6
Continuous
 62
     7
370
    15
100
AcDbCircle
 10
47.8440350376
 20
257.0857573597
 30
0.0
 40
3.499999999999999
100
AcDbArc
 50
25.3769335252
 51
154.6230664748
  0
LINE
  5
1E3
330
1F
100
AcDbEntity
  8
0
  6
Continuous
 62
     7
370
    15
100
AcDbLine
 10
52.34403617
 20
274.5857577396
 30
0.0
 11
51.0063142262
 21
274.5857577396
 31
0.0
  0
LINE
  5
1E4
330
1F
100
AcDbEntity
  8
0
  6
Continuous
 62
     7
370
    15
100
AcDbLine
 10
51.0063142262
 20
258.5857569797
 30
0.0
 11
52.34403617
 21
258.5857569797
 31
0.0
  0
LINE
  5
1E5
330
1F
100
AcDbEntity
  8
0
  6
Continuous
 62
     7
370
    15
100
AcDbLine
 10
9.3440349426
 20
281.5857570244
 30
0.0
 11
7.3440348476
 21
279.5857576279
 31
0.0
  0
LINE
  5
1E6
330
1F
100
AcDbEntity
  8
0
  6
Continuous
 62
     7
370
    15
100
AcDbLine
 10
7.3440348476
 20
253.5857570914
 30
0.0
 11
9.3440349426
 21
251.5857576949
 31
0.0
  0
LINE
  5
1E7
330
1F
100
AcDbEntity
  8
0
  6
Continuous
 62
     7
370
    15
100
AcDbLine
 10
9.3440349426
 20
251.5857576949
 30
0.0
 11
11.3440350376
 21
251.5857576949
 31
0.0
  0
LINE
  5
1E8
330
1F
100
AcDbEntity
  8
0
  6
Continuous
 62
     7
370
    15
100
AcDbLine
 10
11.3440350376
 20
281.5857570244
 30
0.0
 11
9.3440349426
 21
281.5857570244
 31
0.0
  0
LINE
  5
1E9
330
1F
100
AcDbEntity
  8
0
  6
Continuous
 62
     7
370
    15
100
AcDbLine
 10
59.3440354548
 20
212.5857559589
 30
0.0
 11
57.344035127
 21
212.5857559589
 31
0.0
  0
LINE
  5
1EA
330
1F
100
AcDbEntity
  8
0
  6
Continuous
 62
     7
370
    15
100
AcDbLine
 10
57.344035127
 20
182.5857584921
 30
0.0
 11
59.3440354548
 21
182.5857584921
 31
0.0
  0
LINE
  5
1EB
330
1F
100
AcDbEntity
  8
0
  6
Continuous
 62
     7
370
    15
100
AcDbLine
 10
59.3440354548
 20
182.5857584921
 30
0.0
 11
61.3440357826
 21
184.5857550947
 31
0.0
  0
LINE
  5
1EC
330
1F
100
AcDbEntity
  8
0
  6
Continuous
 62
     7
370
    15
100
AcDbLine
 10
61.3440357826
 20
210.5857556311
 30
0.0
 11
59.3440354548
 21
212.5857559589
 31
0.0
  0
LINE
  5
1ED
330
1F
100
AcDbEntity
  8
0
  6
Continuous
 62
     7
370
    15
100
AcDbLine
 10
57.344035127
 20
202.5857543198
 30
0.0
 11
49.8440348289
 21
202.5857543198
 31
0.0
  0
LINE
  5
1EE
330
1F
100
AcDbEntity
  8
0
  6
Continuous
 62
     7
370
    15
100
AcDbLine
 10
49.8440348289
 20
192.585756406
 30
0.0
 11
57.344035127
 21
192.585756406
 31
0.0
  0
LINE
  5
1EF
330
1F
100
AcDbEntity
  8
0
  6
Continuous
 62
     7
370
    15
100
AcDbLine
 10
27.5684342466
 20
192.585756406
 30
0.0
 11
27.7591430328
 21
192.585756406
 31
0.0
  0
LINE
  5
1F0
330
1F
100
AcDbEntity
  8
0
  6
Continuous
 62
     7
370
    15
100
AcDbLine
 10
27.7591430328
 20
202.5857543198
 30
0.0
 11
27.5684342466
 21
202.5857543198
 31
0.0
  0
LINE
  5
1F1
330
1F
100
AcDbEntity
  8
0
  6
Continuous
 62
     7
370
    15
100
AcDbLine
 10
27.7591430328
 20
192.585756406
 30
0.0
 11
47.7591425858
 21
192.585756406
 31
0.0
  0
LINE
  5
1F2
330
1F
100
AcDbEntity
  8
0
  6
Continuous
 62
     7
370
    15
100
AcDbLine
 10
47.7591425858
 20
202.5857543198
 30
0.0
 11
27.7591430328
 21
202.5857543198
 31
0.0
  0
LINE
  5
1F3
330
1F
100
AcDbEntity
  8
0
  6
Continuous
 62
     7
370
    15
100
AcDbLine
 10
9.3440349426
 20
182.5857584921
 30
0.0
 11
11.3440350376
 21
182.5857584921
 31
0.0
  0
LINE
  5
1F4
330
1F
100
AcDbEntity
  8
0
  6
Continuous
 62
     7
370
    15
100
AcDbLine
 10
11.3440350376
 20
212.5857559589
 30
0.0
 11
9.3440349426
 21
212.5857559589
 31
0.0
  0
LINE
  5
1F5
330
1F
100
AcDbEntity
  8
0
  6
Continuous
 62
     7
370
    15
100
AcDbLine
 10
9.3440349426
 20
212.5857559589
 30
0.0
 11
7.3440348476
 21
210.5857556311
 31
0.0
  0
LINE
  5
1F6
330
1F
100
AcDbEntity
  8
0
  6
Continuous
 62
     7
370
    15
100
AcDbLine
 10
7.3440348476
 20
184.5857550947
 30
0.0
 11
9.3440349426
 21
182.5857584921
 31
0.0
  0
LINE
  5
1F7
330
1F
100
AcDbEntity
  8
0
  6
Continuous
 62
     7
370
    15
100
AcDbLine
 10
17.3440350897
 20
192.585756406
 30
0.0
 11
26.3440347023
 21
192.585756406
 31
0.0
  0
LINE
  5
1F8
330
1F
100
AcDbEntity
  8
0
  6
Continuous
 62
     7
370
    15
100
AcDbLine
 10
26.3440347023
 20
202.5857543198
 30
0.0
 11
17.3440350897
 21
202.5857543198
 31
0.0
  0
LINE
  5
1F9
330
1F
100
AcDbEntity
  8
0
  6
Continuous
 62
     7
370
    15
100
AcDbLine
 10
15.9925407476
 20
175.0857581941
 30
0.0
 11
17.3440350897
 21
175.0857581941
 31
0.0
  0
LINE
  5
1FA
330
1F
100
AcDbEntity
  8
0
  6
Continuous
 62
     7
370
    15
100
AcDbLine
 10
11.3440350376
 20
175.0857581941
 30
0.0
 11
12.7150299938
 21
175.0857581941
 31
0.0
  0
LINE
  5
1FB
330
1F
100
AcDbEntity
  8
0
  6
Continuous
 62
     7
370
    15
100
AcDbLine
 10
17.3440350897
 20
215.0857573001
 30
0.0
 11
11.3440350376
 21
215.0857573001
 31
0.0
  0
LINE
  5
1FC
330
1F
100
AcDbEntity
  8
0
  6
Continuous
 62
     7
370
    15
100
AcDbLine
 10
17.3440350897
 20
346.5857555715
 30
0.0
 11
11.3440350376
 21
346.5857555715
 31
0.0
  0
LINE
  5
1FD
330
1F
100
AcDbEntity
  8
0
  6
Continuous
 62
     7
370
    15
100
AcDbLine
 10
49.3440338157
 20
311.5857591478
 30
0.0
 11
49.3440338157
 21
341.5857603399
 31
0.0
  0
LINE
  5
1FE
330
1F
100
AcDbEntity
  8
0
  6
Continuous
 62
     7
370
    15
100
AcDbLine
 10
48.3440355144
 20
324.542423114
 30
0.0
 11
48.3440355144
 21
311.5857591478
 31
0.0
  0
LINE
  5
1FF
330
1F
100
AcDbEntity
  8
0
  6
Continuous
 62
     7
370
    15
100
AcDbLine
 10
48.3440355144
 20
341.5857603399
 30
0.0
 11
48.3440355144
 21
324.542423114
 31
0.0
  0
LINE
  5
200
330
1F
100
AcDbEntity
  8
0
  6
Continuous
 62
     7
370
    15
100
AcDbLine
 10
51.3440341435
 20
339.5857562868
 30
0.0
 11
51.3440341435
 21
313.5857557503
 31
0.0
  0
LINE
  5
201
330
1F
100
AcDbEntity
  8
0
  6
Continuous
 62
     7
370
    15
100
AcDbLine
 10
21.6440352357
 20
340.3366705028
 30
0.0
 11
21.6440352357
 21
311.5857591478
 31
0.0
  0
LINE
  5
202
330
1F
100
AcDbEntity
  8
0
  6
Continuous
 62
     7
370
    15
100
AcDbLine
 10
21.6440352357
 20
341.5857603399
 30
0.0
 11
21.6440352357
 21
340.3366705028
 31
0.0
  0
LINE
  5
203
330
1F
100
AcDbEntity
  8
0
  6
Continuous
 62
     7
370
    15
100
AcDbLine
 10
28.0440346084
 20
340.3366705028
 30
0.0
 11
28.0440346084
 21
341.5857603399
 31
0.0
  0
LINE
  5
204
330
1F
100
AcDbEntity
  8
0
  6
Continuous
 62
     7
370
    15
100
AcDbLine
 10
28.0440346084
 20
311.5857591478
 30
0.0
 11
28.0440346084
 21
340.3366705028
 31
0.0
  0
LINE
  5
205
330
1F
100
AcDbEntity
  8
0
  6
Continuous
 62
     7
370
    15
100
AcDbLine
 10
28.3440359614
 20
340.0616472212
 30
0.0
 11
28.3440359614
 21
311.8857567755
 31
0.0
  0
LINE
  5
206
330
1F
100
AcDbEntity
  8
0
  6
Continuous
 62
     7
370
    15
100
AcDbLine
 10
28.3440359614
 20
341.2857552616
 30
0.0
 11
28.3440359614
 21
340.0616472212
 31
0.0
  0
LINE
  5
207
330
1F
100
AcDbEntity
  8
0
  6
Continuous
 62
     7
370
    15
100
AcDbLine
 10
47.4740349434
 20
299.446602687
 30
0.0
 11
47.4740349434
 21
355.535758063
 31
0.0
  0
LINE
  5
208
330
1F
100
AcDbEntity
  8
0
  6
Continuous
 62
     7
370
    15
100
AcDbLine
 10
47.4740349434
 20
297.6357576994
 30
0.0
 11
47.4740349434
 21
299.446602687
 31
0.0
  0
LINE
  5
209
330
1F
100
AcDbEntity
  8
0
  6
Continuous
 62
     7
370
    15
100
AcDbLine
 10
47.9740359567
 20
299.446602687
 30
0.0
 11
47.9740359567
 21
355.535758063
 31
0.0
  0
LINE
  5
20A
330
1F
100
AcDbEntity
  8
0
  6
Continuous
 62
     7
370
    15
100
AcDbLine
 10
47.9740359567
 20
297.6357576994
 30
0.0
 11
47.9740359567
 21
299.446602687
 31
0.0
  0
LINE
  5
20B
330
1F
100
AcDbEntity
  8
0
  6
Continuous
 62
     7
370
    15
100
AcDbLine
 10
28.7140355192
 20
299.2234242705
 30
0.0
 11
28.7140355192
 21
297.6357576994
 31
0.0
  0
LINE
  5
20C
330
1F
100
AcDbEntity
  8
0
  6
Continuous
 62
     7
370
    15
100
AcDbLine
 10
28.7140355192
 20
355.535758063
 30
0.0
 11
28.7140355192
 21
299.2234242705
 31
0.0
  0
LINE
  5
20D
330
1F
100
AcDbEntity
  8
0
  6
Continuous
 62
     7
370
    15
100
AcDbLine
 10
29.2140346698
 20
299.2234242705
 30
0.0
 11
29.2140346698
 21
297.6357576994
 31
0.0
  0
LINE
  5
20E
330
1F
100
AcDbEntity
  8
0
  6
Continuous
 62
     7
370
    15
100
AcDbLine
 10
29.2140346698
 20
355.535758063
 30
0.0
 11
29.2140346698
 21
299.2234242705
 31
0.0
  0
LINE
  5
20F
330
1F
100
AcDbEntity
  8
0
  6
Continuous
 62
     7
370
    15
100
AcDbLine
 10
27.491154962
 20
198.3437588064
 30
0.0
 11
27.491154962
 21
194.2762558905
 31
0.0
  0
LINE
  5
210
330
1F
100
AcDbEntity
  8
0
  6
Continuous
 62
     7
370
    15
100
AcDbLine
 10
27.491154962
 20
200.8952548353
 30
0.0
 11
27.491154962
 21
198.3437588064
 31
0.0
  0
LINE
  5
211
330
1F
100
AcDbEntity
  8
0
  6
Continuous
 62
     7
370
    15
100
AcDbLine
 10
26.7375082455
 20
198.5019122807
 30
0.0
 11
26.7375082455
 21
193.5857584325
 31
0.0
  0
LINE
  5
212
330
1F
100
AcDbEntity
  8
0
  6
Continuous
 62
     7
370
    15
100
AcDbLine
 10
26.7375082455
 20
201.5857597438
 30
0.0
 11
26.7375082455
 21
198.5019122807
 31
0.0
  0
LINE
  5
213
330
1F
100
AcDbEntity
  8
0
  6
Continuous
 62
     7
370
    15
100
AcDbLine
 10
27.00766071
 20
198.5019122807
 30
0.0
 11
27.00766071
 21
193.5857584325
 31
0.0
  0
LINE
  5
214
330
1F
100
AcDbEntity
  8
0
  6
Continuous
 62
     7
370
    15
100
AcDbLine
 10
27.00766071
 20
201.5857597438
 30
0.0
 11
27.00766071
 21
198.5019122807
 31
0.0
  0
LINE
  5
215
330
1F
100
AcDbEntity
  8
0
  6
Continuous
 62
     7
370
    15
100
AcDbLine
 10
48.0390422724
 20
198.5019122807
 30
0.0
 11
48.0390422724
 21
193.5857584325
 31
0.0
  0
LINE
  5
216
330
1F
100
AcDbEntity
  8
0
  6
Continuous
 62
     7
370
    15
100
AcDbLine
 10
48.0390422724
 20
201.5857597438
 30
0.0
 11
48.0390422724
 21
198.5019122807
 31
0.0
  0
LINE
  5
217
330
1F
100
AcDbEntity
  8
0
  6
Continuous
 62
     7
370
    15
100
AcDbLine
 10
48.5225365243
 20
198.3437588064
 30
0.0
 11
48.5225365243
 21
194.2762558905
 31
0.0
  0
LINE
  5
218
330
1F
100
AcDbEntity
  8
0
  6
Continuous
 62
     7
370
    15
100
AcDbLine
 10
48.5225365243
 20
200.8952548353
 30
0.0
 11
48.5225365243
 21
198.3437588064
 31
0.0
  0
LINE
  5
219
330
1F
100
AcDbEntity
  8
0
  6
Continuous
 62
     7
370
    15
100
AcDbLine
 10
49.2761813782
 20
198.5019122807
 30
0.0
 11
49.2761813782
 21
193.5857584325
 31
0.0
  0
LINE
  5
21A
330
1F
100
AcDbEntity
  8
0
  6
Continuous
 62
     7
370
    15
100
AcDbLine
 10
49.2761813782
 20
201.5857597438
 30
0.0
 11
49.2761813782
 21
198.5019122807
 31
0.0
  0
LINE
  5
21B
330
1F
100
AcDbEntity
  8
0
  6
Continuous
 62
     7
370
    15
100
AcDbLine
 10
49.006027051
 20
198.5019122807
 30
0.0
 11
49.006027051
 21
193.5857584325
 31
0.0
  0
LINE
  5
21C
330
1F
100
AcDbEntity
  8
0
  6
Continuous
 62
     7
370
    15
100
AcDbLine
 10
49.006027051
 20
201.5857597438
 30
0.0
 11
49.006027051
 21
198.5019122807
 31
0.0
  0
LINE
  5
21D
330
1F
100
AcDbEntity
  8
0
  6
Continuous
 62
     7
370
    15
100
AcDbLine
 10
47.7688879452
 20
198.5019122807
 30
0.0
 11
47.7688879452
 21
193.5857584325
 31
0.0
  0
LINE
  5
21E
330
1F
100
AcDbEntity
  8
0
  6
Continuous
 62
     7
370
    15
100
AcDbLine
 10
47.7688879452
 20
201.5857597438
 30
0.0
 11
47.7688879452
 21
198.5019122807
 31
0.0
  0
LINE
  5
21F
330
1F
100
AcDbEntity
  8
0
  6
Continuous
 62
     7
370
    15
100
AcDbLine
 10
49.7596756301
 20
198.3437588064
 30
0.0
 11
49.7596756301
 21
194.2762558905
 31
0.0
  0
LINE
  5
220
330
1F
100
AcDbEntity
  8
0
  6
Continuous
 62
     7
370
    15
100
AcDbLine
 10
49.7596756301
 20
200.8952548353
 30
0.0
 11
49.7596756301
 21
198.3437588064
 31
0.0
  0
LINE
  5
221
330
1F
100
AcDbEntity
  8
0
  6
Continuous
 62
     7
370
    15
100
AcDbLine
 10
29.3440342627
 20
298.5853528229
 30
0.0
 11
29.3440342627
 21
297.585756853
 31
0.0
  0
LINE
  5
222
330
1F
100
AcDbEntity
  8
0
  6
Continuous
 62
     7
370
    15
100
AcDbLine
 10
29.3440342627
 20
355.5857589094
 30
0.0
 11
29.3440342627
 21
298.5853528229
 31
0.0
  0
LINE
  5
223
330
1F
100
AcDbEntity
  8
0
  6
Continuous
 62
     7
370
    15
100
AcDbLine
 10
30.3123601458
 20
298.5853528229
 30
0.0
 11
30.3123601458
 21
355.5857589094
 31
0.0
  0
LINE
  5
224
330
1F
100
AcDbEntity
  8
0
  6
Continuous
 62
     7
370
    15
100
AcDbLine
 10
30.3123601458
 20
297.585756853
 30
0.0
 11
30.3123601458
 21
298.5853528229
 31
0.0
  0
LINE
  5
225
330
1F
100
AcDbEntity
  8
0
  6
Continuous
 62
     7
370
    15
100
AcDbLine
 10
46.3236056946
 20
355.5857589094
 30
0.0
 11
46.3236056946
 21
297.585756853
 31
0.0
  0
LINE
  5
226
330
1F
100
AcDbEntity
  8
0
  6
Continuous
 62
     7
370
    15
100
AcDbLine
 10
47.3440334878
 20
298.5853528229
 30
0.0
 11
47.3440334878
 21
297.585756853
 31
0.0
  0
LINE
  5
227
330
1F
100
AcDbEntity
  8
0
  6
Continuous
 62
     7
370
    15
100
AcDbLine
 10
47.3440334878
 20
355.5857589094
 30
0.0
 11
47.3440334878
 21
298.5853528229
 31
0.0
  0
LINE
  5
228
330
1F
100
AcDbEntity
  8
0
  6
Continuous
 62
     7
370
    15
100
AcDbLine
 10
9.3440349426
 20
341.5857603399
 30
0.0
 11
9.3440349426
 21
311.5857591478
 31
0.0
  0
LINE
  5
229
330
1F
100
AcDbEntity
  8
0
  6
Continuous
 62
     7
370
    15
100
AcDbLine
 10
7.3440348476
 20
313.5857557503
 30
0.0
 11
7.3440348476
 21
339.5857562868
 31
0.0
  0
LINE
  5
22A
330
1F
100
AcDbEntity
  8
0
  6
Continuous
 62
     7
370
    15
100
AcDbLine
 10
17.5440352156
 20
341.5857603399
 30
0.0
 11
17.5440352156
 21
311.5857591478
 31
0.0
  0
LINE
  5
22B
330
1F
100
AcDbEntity
  8
0
  6
Continuous
 62
     7
370
    15
100
AcDbLine
 10
21.1440351538
 20
311.5857591478
 30
0.0
 11
21.1440351538
 21
341.5857603399
 31
0.0
  0
LINE
  5
22C
330
1F
100
AcDbEntity
  8
0
  6
Continuous
 62
     7
370
    15
100
AcDbLine
 10
21.344034814
 20
341.3857569543
 30
0.0
 11
21.344034814
 21
311.785758808
 31
0.0
  0
LINE
  5
22D
330
1F
100
AcDbEntity
  8
0
  6
Continuous
 62
     7
370
    15
100
AcDbLine
 10
17.5440352156
 20
261.2942549025
 30
0.0
 11
17.5440352156
 21
258.5857569797
 31
0.0
  0
LINE
  5
22E
330
1F
100
AcDbEntity
  8
0
  6
Continuous
 62
     7
370
    15
100
AcDbLine
 10
17.5440352156
 20
274.5857577396
 30
0.0
 11
17.5440352156
 21
271.8772598168
 31
0.0
  0
LINE
  5
22F
330
1F
100
AcDbEntity
  8
0
  6
Continuous
 62
     7
370
    15
100
AcDbLine
 10
17.5440352156
 20
271.8772598168
 30
0.0
 11
43.3440365575
 21
271.8772598168
 31
0.0
  0
LINE
  5
230
330
1F
100
AcDbEntity
  8
0
  6
Continuous
 62
     7
370
    15
100
AcDbLine
 10
17.5440352156
 20
261.2942549025
 30
0.0
 11
43.3440365575
 21
261.2942549025
 31
0.0
  0
LINE
  5
231
330
1F
100
AcDbEntity
  8
0
  6
Continuous
 62
     7
370
    15
100
AcDbLine
 10
43.3440365575
 20
261.2942549025
 30
0.0
 11
43.3440365575
 21
258.5857569797
 31
0.0
  0
LINE
  5
232
330
1F
100
AcDbEntity
  8
0
  6
Continuous
 62
     7
370
    15
100
AcDbLine
 10
43.3440365575
 20
274.5857577396
 30
0.0
 11
43.3440365575
 21
271.8772598168
 31
0.0
  0
LINE
  5
233
330
1F
100
AcDbEntity
  8
0
  6
Continuous
 62
     7
370
    15
100
AcDbLine
 10
44.6817585013
 20
274.5857577396
 30
0.0
 11
44.6817585013
 21
258.5857569797
 31
0.0
  0
LINE
  5
234
330
1F
100
AcDbEntity
  8
0
  6
Continuous
 62
     7
370
    15
100
AcDbLine
 10
43.3440365575
 20
274.5857577396
 30
0.0
 11
43.3440365575
 21
258.5857569797
 31
0.0
  0
LINE
  5
235
330
1F
100
AcDbEntity
  8
0
  6
Continuous
 62
     7
370
    15
100
AcDbLine
 10
51.0063142262
 20
274.5857577396
 30
0.0
 11
51.0063142262
 21
258.5857569797
 31
0.0
  0
LINE
  5
236
330
1F
100
AcDbEntity
  8
0
  6
Continuous
 62
     7
370
    15
100
AcDbLine
 10
52.34403617
 20
274.5857577396
 30
0.0
 11
52.34403617
 21
258.5857569797
 31
0.0
  0
LINE
  5
237
330
1F
100
AcDbEntity
  8
0
  6
Continuous
 62
     7
370
    15
100
AcDbLine
 10
9.3440349426
 20
281.5857570244
 30
0.0
 11
9.3440349426
 21
251.5857576949
 31
0.0
  0
LINE
  5
238
330
1F
100
AcDbEntity
  8
0
  6
Continuous
 62
     7
370
    15
100
AcDbLine
 10
7.3440348476
 20
253.5857570914
 30
0.0
 11
7.3440348476
 21
279.5857576279
 31
0.0
  0
LINE
  5
239
330
1F
100
AcDbEntity
  8
0
  6
Continuous
 62
     7
370
    15
100
AcDbLine
 10
57.344035127
 20
182.5857584921
 30
0.0
 11
57.344035127
 21
212.5857559589
 31
0.0
  0
LINE
  5
23A
330
1F
100
AcDbEntity
  8
0
  6
Continuous
 62
     7
370
    15
100
AcDbLine
 10
59.3440354548
 20
182.5857584921
 30
0.0
 11
59.3440354548
 21
212.5857559589
 31
0.0
  0
LINE
  5
23B
330
1F
100
AcDbEntity
  8
0
  6
Continuous
 62
     7
370
    15
100
AcDbLine
 10
61.3440357826
 20
210.5857556311
 30
0.0
 11
61.3440357826
 21
184.5857550947
 31
0.0
  0
LINE
  5
23C
330
1F
100
AcDbEntity
  8
0
  6
Continuous
 62
     7
370
    15
100
AcDbLine
 10
49.8440348289
 20
192.585756406
 30
0.0
 11
49.8440348289
 21
202.5857543198
 31
0.0
  0
LINE
  5
23D
330
1F
100
AcDbEntity
  8
0
  6
Continuous
 62
     7
370
    15
100
AcDbLine
 10
27.5684342466
 20
202.5857543198
 30
0.0
 11
27.5684342466
 21
201.0056277362
 31
0.0
  0
LINE
  5
23E
330
1F
100
AcDbEntity
  8
0
  6
Continuous
 62
     7
370
    15
100
AcDbLine
 10
27.5684342466
 20
194.1658904401
 30
0.0
 11
27.5684342466
 21
192.585756406
 31
0.0
  0
LINE
  5
23F
330
1F
100
AcDbEntity
  8
0
  6
Continuous
 62
     7
370
    15
100
AcDbLine
 10
47.7591425858
 20
202.5857543198
 30
0.0
 11
47.7591425858
 21
192.585756406
 31
0.0
  0
LINE
  5
240
330
1F
100
AcDbEntity
  8
0
  6
Continuous
 62
     7
370
    15
100
AcDbLine
 10
27.7591430328
 20
202.5857543198
 30
0.0
 11
27.7591430328
 21
192.585756406
 31
0.0
  0
LINE
  5
241
330
1F
100
AcDbEntity
  8
0
  6
Continuous
 62
     7
370
    15
100
AcDbLine
 10
9.3440349426
 20
203.7209992854
 30
0.0
 11
9.3440349426
 21
182.5857584921
 31
0.0
  0
LINE
  5
242
330
1F
100
AcDbEntity
  8
0
  6
Continuous
 62
     7
370
    15
100
AcDbLine
 10
9.3440349426
 20
212.5857559589
 30
0.0
 11
9.3440349426
 21
203.7209992854
 31
0.0
  0
LINE
  5
243
330
1F
100
AcDbEntity
  8
0
  6
Continuous
 62
     7
370
    15
100
AcDbLine
 10
7.3440348476
 20
202.9029702393
 30
0.0
 11
7.3440348476
 21
210.5857556311
 31
0.0
  0
LINE
  5
244
330
1F
100
AcDbEntity
  8
0
  6
Continuous
 62
     7
370
    15
100
AcDbLine
 10
7.3440348476
 20
184.5857550947
 30
0.0
 11
7.3440348476
 21
202.9029702393
 31
0.0
  0
LINE
  5
245
330
1F
100
AcDbEntity
  8
0
  6
Continuous
 62
     7
370
    15
100
AcDbLine
 10
26.3440347023
 20
199.6308391539
 30
0.0
 11
26.3440347023
 21
192.585756406
 31
0.0
  0
LINE
  5
246
330
1F
100
AcDbEntity
  8
0
  6
Continuous
 62
     7
370
    15
100
AcDbLine
 10
26.3440347023
 20
202.5857543198
 30
0.0
 11
26.3440347023
 21
199.6308391539
 31
0.0
  0
LINE
  5
247
330
1F
100
AcDbEntity
  8
0
  6
Continuous
 62
     7
370
    15
100
AcDbLine
 10
15.8440348438
 20
175.0857581941
 30
0.0
 11
12.8440350506
 21
175.0857581941
 31
0.0
  0
LINE
  5
248
330
1F
100
AcDbEntity
  8
0
  6
Continuous
 62
     7
370
    15
100
AcDbLine
 10
17.3440350897
 20
215.0857573001
 30
0.0
 11
17.3440350897
 21
175.0857581941
 31
0.0
  0
SPLINE
  5
249
330
1F
100
AcDbEntity
  8
0
  6
Continuous
 62
     7
370
    15
100
AcDbSpline
210
0.0
220
0.0
230
1.0
 70
     8
 71
     3
 72
    17
 73
    13
 74
     0
 42
0.000000001
 43
0.00000001
 40
0.0
 40
0.0
 40
0.0
 40
0.0
 40
0.0365412945772079
 40
0.1435325978777057
 40
0.2506550707703277
 40
0.3580951470862664
 40
0.4655447651292688
 40
0.5726778113016177
 40
0.6796631428567786
 40
0.7868985975151825
 40
0.8943937124725249
 40
1.0
 40
1.0
 40
1.0
 40
1.0
 10
12.71502999378318
 20
175.0874718276589
 30
0.0
 10
12.70925636652624
 20
175.0870014119066
 30
0.0
 10
12.68657781260652
 20
175.085153639522
 30
0.0
 10
12.83858747942012
 20
175.0976682860534
 30
0.0
 10
13.15526418363181
 20
175.1197872757942
 30
0.0
 10
13.61877669139592
 20
175.142952796382
 30
0.0
 10
14.16112275842318
 20
175.1557374436898
 30
0.0
 10
14.72402345169928
 20
175.1528678254488
 30
0.0
 10
15.24430706980815
 20
175.1354779512214
 30
0.0
 10
15.66027824986388
 20
175.1115595211276
 30
0.0
 10
15.94102214063277
 20
175.0902578008612
 30
0.0
 10
15.97546965396938
 20
175.0873288823905
 30
0.0
 10
15.99254074761594
 20
175.0858774034112
 30
0.0
  0
LINE
  5
24A
330
1F
100
AcDbEntity
  8
0
  6
Continuous
 62
     7
370
    15
100
AcDbLine
 10
11.3440350376
 20
215.0857573001
 30
0.0
 11
11.3440350376
 21
175.0857581941
 31
0.0
  0
LINE
  5
24B
330
1F
100
AcDbEntity
  8
0
  6
Continuous
 62
     7
370
    15
100
AcDbLine
 10
17.3440350897
 20
312.4414881317
 30
0.0
 11
11.3440350376
 21
312.4414881317
 31
0.0
  0
LINE
  5
24C
330
1F
100
AcDbEntity
  8
0
  6
Continuous
 62
     7
370
    15
100
AcDbLine
 10
17.3440350897
 20
312.4414881317
 30
0.0
 11
17.3440350897
 21
215.0857573001
 31
0.0
  0
LINE
  5
24D
330
1F
100
AcDbEntity
  8
0
  6
Continuous
 62
     7
370
    15
100
AcDbLine
 10
11.3440350376
 20
312.4414881317
 30
0.0
 11
11.3440350376
 21
215.0857573001
 31
0.0
  0
LINE
  5
24E
330
1F
100
AcDbEntity
  8
0
  6
Continuous
 62
     7
370
    15
100
AcDbLine
 10
17.3440350897
 20
346.5857555715
 30
0.0
 11
17.3440350897
 21
312.4414881317
 31
0.0
  0
LINE
  5
24F
330
1F
100
AcDbEntity
  8
0
  6
Continuous
 62
     7
370
    15
100
AcDbLine
 10
11.3440350376
 20
346.5857555715
 30
0.0
 11
11.3440350376
 21
312.4414881317
 31
0.0
  0
LINE
  5
250
330
1F
100
AcDbEntity
  8
0
  6
Continuous
 62
     7
370
    15
100
AcDbLine
 10
197.3643221172
 20
134.7006195647
 30
0.0
 11
197.3643221172
 21
133.7006212634
 31
0.0
  0
LINE
  5
251
330
1F
100
AcDbEntity
  8
0
  6
Continuous
 62
     7
370
    15
100
AcDbLine
 10
227.3643214467
 20
133.7006212634
 30
0.0
 11
227.3643214467
 21
134.7006195647
 31
0.0
  0
LINE
  5
252
330
1F
100
AcDbEntity
  8
0
  6
Continuous
 62
     7
370
    15
100
AcDbLine
 10
227.3643214467
 20
134.7006195647
 30
0.0
 11
225.3643220502
 21
136.7006198925
 31
0.0
  0
LINE
  5
253
330
1F
100
AcDbEntity
  8
0
  6
Continuous
 62
     7
370
    15
100
AcDbLine
 10
199.3643215137
 20
136.7006198925
 30
0.0
 11
197.3643221172
 21
134.7006195647
 31
0.0
  0
LINE
  5
254
330
1F
100
AcDbEntity
  8
0
  6
Continuous
 62
     7
370
    15
100
AcDbLine
 10
202.6143215808
 20
133.7006212634
 30
0.0
 11
202.6143215808
 21
133.3306217057
 31
0.0
  0
LINE
  5
255
330
1F
100
AcDbEntity
  8
0
  6
Continuous
 62
     7
370
    15
100
AcDbLine
 10
222.1143219831
 20
133.3306217057
 30
0.0
 11
222.1143219831
 21
133.7006212634
 31
0.0
  0
LINE
  5
256
330
1F
100
AcDbEntity
  8
0
  6
Continuous
 62
     7
370
    15
100
AcDbLine
 10
202.7843214783
 20
132.8306206924
 30
0.0
 11
202.9143220025
 21
132.7006192369
 31
0.0
  0
LINE
  5
257
330
1F
100
AcDbEntity
  8
0
  6
Continuous
 62
     7
370
    15
100
AcDbLine
 10
221.8143215614
 20
132.7006192369
 30
0.0
 11
221.9443220856
 21
132.8306206924
 31
0.0
  0
LINE
  5
258
330
1F
100
AcDbEntity
  8
0
  6
Continuous
 62
     7
370
    15
100
AcDbLine
 10
227.3643214467
 20
113.4006203574
 30
0.0
 11
227.0643219563
 21
113.7006217105
 31
0.0
  0
LINE
  5
259
330
1F
100
AcDbEntity
  8
0
  6
Continuous
 62
     7
370
    15
100
AcDbLine
 10
197.6643216076
 20
113.7006217105
 30
0.0
 11
197.3643221172
 21
113.4006203574
 31
0.0
  0
LINE
  5
25A
330
1F
100
AcDbEntity
  8
0
  6
Continuous
 62
     7
370
    15
100
AcDbLine
 10
227.3643214467
 20
107.0006209848
 30
0.0
 11
227.3643214467
 21
113.4006203574
 31
0.0
  0
LINE
  5
25B
330
1F
100
AcDbEntity
  8
0
  6
Continuous
 62
     7
370
    15
100
AcDbLine
 10
197.3643221172
 20
113.4006203574
 30
0.0
 11
197.3643221172
 21
107.0006209848
 31
0.0
  0
LINE
  5
25C
330
1F
100
AcDbEntity
  8
0
  6
Continuous
 62
     7
370
    15
100
AcDbLine
 10
197.3643221172
 20
107.0006209848
 30
0.0
 11
197.6643216076
 21
106.7006205631
 31
0.0
  0
LINE
  5
25D
330
1F
100
AcDbEntity
  8
0
  6
Continuous
 62
     7
370
    15
100
AcDbLine
 10
227.0643219563
 20
106.7006205631
 30
0.0
 11
227.3643214467
 21
107.0006209848
 31
0.0
  0
LINE
  5
25E
330
1F
100
AcDbEntity
  8
0
  6
Continuous
 62
     7
370
    15
100
AcDbLine
 10
221.9443220856
 20
114.5706204188
 30
0.0
 11
221.8143215614
 21
114.7006200117
 31
0.0
  0
LINE
  5
25F
330
1F
100
AcDbEntity
  8
0
  6
Continuous
 62
     7
370
    15
100
AcDbLine
 10
202.9143220025
 20
114.7006200117
 30
0.0
 11
202.7843214783
 21
114.5706204188
 31
0.0
  0
LINE
  5
260
330
1F
100
AcDbEntity
  8
0
  6
Continuous
 62
     7
370
    15
100
AcDbLine
 10
222.1143219831
 20
113.7006217105
 30
0.0
 11
222.1143219831
 21
114.0706212682
 31
0.0
  0
LINE
  5
261
330
1F
100
AcDbEntity
  8
0
  6
Continuous
 62
     7
370
    15
100
AcDbLine
 10
202.6143215808
 20
114.0706212682
 30
0.0
 11
202.6143215808
 21
113.7006217105
 31
0.0
  0
LINE
  5
262
330
1F
100
AcDbEntity
  8
0
  6
Continuous
 62
     7
370
    15
100
AcDbLine
 10
183.4143216002
 20
133.3306217057
 30
0.0
 11
183.4143216002
 21
132.8306206924
 31
0.0
  0
LINE
  5
263
330
1F
100
AcDbEntity
  8
0
  6
Continuous
 62
     7
370
    15
100
AcDbLine
 10
241.3143219637
 20
132.8306206924
 30
0.0
 11
241.3143219637
 21
133.3306217057
 31
0.0
  0
LINE
  5
264
330
1F
100
AcDbEntity
  8
0
  6
Continuous
 62
     7
370
    15
100
AcDbLine
 10
241.3143219637
 20
114.0706212682
 30
0.0
 11
241.3143219637
 21
114.5706204188
 31
0.0
  0
LINE
  5
265
330
1F
100
AcDbEntity
  8
0
  6
Continuous
 62
     7
370
    15
100
AcDbLine
 10
183.4143216002
 20
114.5706204188
 30
0.0
 11
183.4143216002
 21
114.0706212682
 31
0.0
  0
LINE
  5
266
330
1F
100
AcDbEntity
  8
0
  6
Continuous
 62
     7
370
    15
100
AcDbLine
 10
288.8643203514
 20
134.6327671272
 30
0.0
 11
288.1738228935
 21
135.1162613792
 31
0.0
  0
LINE
  5
267
330
1F
100
AcDbEntity
  8
0
  6
Continuous
 62
     7
370
    15
100
AcDbLine
 10
281.5548239487
 20
135.1162613792
 30
0.0
 11
280.8643190401
 21
134.6327671272
 31
0.0
  0
LINE
  5
268
330
1F
100
AcDbEntity
  8
0
  6
Continuous
 62
     7
370
    15
100
AcDbLine
 10
281.4343406099
 20
135.200620578
 30
0.0
 11
281.5548239487
 21
135.1162613792
 31
0.0
  0
LINE
  5
269
330
1F
100
AcDbEntity
  8
0
  6
Continuous
 62
     7
370
    15
100
AcDbLine
 10
288.1738228935
 20
135.1162613792
 30
0.0
 11
288.2942987817
 21
135.200620578
 31
0.0
  0
LINE
  5
26A
330
1F
100
AcDbEntity
  8
0
  6
Continuous
 62
     7
370
    15
100
AcDbLine
 10
280.8643190401
 20
134.6327671272
 30
0.0
 11
280.8643190401
 21
134.3626128
 31
0.0
  0
LINE
  5
26B
330
1F
100
AcDbEntity
  8
0
  6
Continuous
 62
     7
370
    15
100
AcDbLine
 10
288.8643203514
 20
134.3626128
 30
0.0
 11
288.8643203514
 21
134.6327671272
 31
0.0
  0
LINE
  5
26C
330
1F
100
AcDbEntity
  8
0
  6
Continuous
 62
     7
370
    15
100
AcDbLine
 10
288.8643203514
 20
133.3956280214
 30
0.0
 11
288.1738228935
 21
133.8791222734
 31
0.0
  0
LINE
  5
26D
330
1F
100
AcDbEntity
  8
0
  6
Continuous
 62
     7
370
    15
100
AcDbLine
 10
281.5548239487
 20
133.8791222734
 30
0.0
 11
280.8643190401
 21
133.3956280214
 31
0.0
  0
LINE
  5
26E
330
1F
100
AcDbEntity
  8
0
  6
Continuous
 62
     7
370
    15
100
AcDbLine
 10
280.8643190401
 20
134.3626128
 30
0.0
 11
281.5548239487
 21
133.8791222734
 31
0.0
  0
LINE
  5
26F
330
1F
100
AcDbEntity
  8
0
  6
Continuous
 62
     7
370
    15
100
AcDbLine
 10
288.1738228935
 20
133.8791222734
 30
0.0
 11
288.8643203514
 21
134.3626128
 31
0.0
  0
LINE
  5
270
330
1F
100
AcDbEntity
  8
0
  6
Continuous
 62
     7
370
    15
100
AcDbLine
 10
280.8643190401
 20
133.1254736942
 30
0.0
 11
280.8782367247
 21
133.1157283348
 31
0.0
  0
LINE
  5
271
330
1F
100
AcDbEntity
  8
0
  6
Continuous
 62
     7
370
    15
100
AcDbLine
 10
288.8504026669
 20
133.1157283348
 30
0.0
 11
288.8643203514
 21
133.1254736942
 31
0.0
  0
LINE
  5
272
330
1F
100
AcDbEntity
  8
0
  6
Continuous
 62
     7
370
    15
100
AcDbLine
 10
280.8643190401
 20
133.3956280214
 30
0.0
 11
280.8643190401
 21
133.1254736942
 31
0.0
  0
LINE
  5
273
330
1F
100
AcDbEntity
  8
0
  6
Continuous
 62
     7
370
    15
100
AcDbLine
 10
288.8643203514
 20
133.1254736942
 30
0.0
 11
288.8643203514
 21
133.3956280214
 31
0.0
  0
LINE
  5
274
330
1F
100
AcDbEntity
  8
0
  6
Continuous
 62
     7
370
    15
100
AcDbLine
 10
280.8643190401
 20
112.3642464591
 30
0.0
 11
280.8643190401
 21
112.0940939945
 31
0.0
  0
LINE
  5
275
330
1F
100
AcDbEntity
  8
0
  6
Continuous
 62
     7
370
    15
100
AcDbLine
 10
288.8643203514
 20
112.0940939945
 30
0.0
 11
288.8643203514
 21
112.3642464591
 31
0.0
  0
LINE
  5
276
330
1F
100
AcDbEntity
  8
0
  6
Continuous
 62
     7
370
    15
100
AcDbLine
 10
280.8643190401
 20
112.0940939945
 30
0.0
 11
281.4262567299
 21
111.7006204513
 31
0.0
  0
LINE
  5
277
330
1F
100
AcDbEntity
  8
0
  6
Continuous
 62
     7
370
    15
100
AcDbLine
 10
288.3023826617
 20
111.7006204513
 30
0.0
 11
288.8643203514
 21
112.0940939945
 31
0.0
  0
LINE
  5
278
330
1F
100
AcDbEntity
  8
0
  6
Continuous
 62
     7
370
    15
100
AcDbLine
 10
288.8643203514
 20
112.3642464591
 30
0.0
 11
288.1738228935
 21
112.847740711
 31
0.0
  0
LINE
  5
279
330
1F
100
AcDbEntity
  8
0
  6
Continuous
 62
     7
370
    15
100
AcDbLine
 10
281.5548239487
 20
112.847740711
 30
0.0
 11
280.8643190401
 21
112.3642464591
 31
0.0
  0
LINE
  5
27A
330
1F
100
AcDbEntity
  8
0
  6
Continuous
 62
     7
370
    15
100
AcDbLine
 10
281.172095074
 20
113.1157287819
 30
0.0
 11
281.5548239487
 21
112.847740711
 31
0.0
  0
LINE
  5
27B
330
1F
100
AcDbEntity
  8
0
  6
Continuous
 62
     7
370
    15
100
AcDbLine
 10
288.1738228935
 20
112.847740711
 30
0.0
 11
288.5565517681
 21
113.1157287819
 31
0.0
  0
LINE
  5
27C
330
1F
100
AcDbEntity
  8
0
  6
Continuous
 62
     7
370
    15
100
AcDbLine
 10
135.8643232125
 20
134.6327671272
 30
0.0
 11
135.8643232125
 21
134.3626128
 31
0.0
  0
LINE
  5
27D
330
1F
100
AcDbEntity
  8
0
  6
Continuous
 62
     7
370
    15
100
AcDbLine
 10
143.8643245238
 20
134.3626128
 30
0.0
 11
143.8643245238
 21
134.6327671272
 31
0.0
  0
LINE
  5
27E
330
1F
100
AcDbEntity
  8
0
  6
Continuous
 62
     7
370
    15
100
AcDbLine
 10
136.4343447822
 20
135.200620578
 30
0.0
 11
136.5548206704
 21
135.1162613792
 31
0.0
  0
LINE
  5
27F
330
1F
100
AcDbEntity
  8
0
  6
Continuous
 62
     7
370
    15
100
AcDbLine
 10
143.1738196152
 20
135.1162613792
 30
0.0
 11
143.294302954
 21
135.200620578
 31
0.0
  0
LINE
  5
280
330
1F
100
AcDbEntity
  8
0
  6
Continuous
 62
     7
370
    15
100
AcDbLine
 10
143.8643245238
 20
134.6327671272
 30
0.0
 11
143.1738196152
 21
135.1162613792
 31
0.0
  0
LINE
  5
281
330
1F
100
AcDbEntity
  8
0
  6
Continuous
 62
     7
370
    15
100
AcDbLine
 10
136.5548206704
 20
135.1162613792
 30
0.0
 11
135.8643232125
 21
134.6327671272
 31
0.0
  0
LINE
  5
282
330
1F
100
AcDbEntity
  8
0
  6
Continuous
 62
     7
370
    15
100
AcDbLine
 10
135.8643232125
 20
134.3626128
 30
0.0
 11
136.5548206704
 21
133.8791222734
 31
0.0
  0
LINE
  5
283
330
1F
100
AcDbEntity
  8
0
  6
Continuous
 62
     7
370
    15
100
AcDbLine
 10
143.1738196152
 20
133.8791222734
 30
0.0
 11
143.8643245238
 21
134.3626128
 31
0.0
  0
LINE
  5
284
330
1F
100
AcDbEntity
  8
0
  6
Continuous
 62
     7
370
    15
100
AcDbLine
 10
135.8643232125
 20
133.3956280214
 30
0.0
 11
135.8643232125
 21
133.1254736942
 31
0.0
  0
LINE
  5
285
330
1F
100
AcDbEntity
  8
0
  6
Continuous
 62
     7
370
    15
100
AcDbLine
 10
143.8643245238
 20
133.1254736942
 30
0.0
 11
143.8643245238
 21
133.3956280214
 31
0.0
  0
LINE
  5
286
330
1F
100
AcDbEntity
  8
0
  6
Continuous
 62
     7
370
    15
100
AcDbLine
 10
143.8643245238
 20
133.3956280214
 30
0.0
 11
143.1738196152
 21
133.8791222734
 31
0.0
  0
LINE
  5
287
330
1F
100
AcDbEntity
  8
0
  6
Continuous
 62
     7
370
    15
100
AcDbLine
 10
136.5548206704
 20
133.8791222734
 30
0.0
 11
135.8643232125
 21
133.3956280214
 31
0.0
  0
LINE
  5
288
330
1F
100
AcDbEntity
  8
0
  6
Continuous
 62
     7
370
    15
100
AcDbLine
 10
135.8643232125
 20
133.1254736942
 30
0.0
 11
136.1505968707
 21
132.9250195486
 31
0.0
  0
LINE
  5
289
330
1F
100
AcDbEntity
  8
0
  6
Continuous
 62
     7
370
    15
100
AcDbLine
 10
143.5780434149
 20
132.9250195486
 30
0.0
 11
143.8643245238
 21
133.1254736942
 31
0.0
  0
LINE
  5
28A
330
1F
100
AcDbEntity
  8
0
  6
Continuous
 62
     7
370
    15
100
AcDbLine
 10
135.8643232125
 20
112.3642464591
 30
0.0
 11
135.8643232125
 21
112.0940939945
 31
0.0
  0
LINE
  5
28B
330
1F
100
AcDbEntity
  8
0
  6
Continuous
 62
     7
370
    15
100
AcDbLine
 10
143.8643245238
 20
112.0940939945
 30
0.0
 11
143.8643245238
 21
112.3642464591
 31
0.0
  0
LINE
  5
28C
330
1F
100
AcDbEntity
  8
0
  6
Continuous
 62
     7
370
    15
100
AcDbLine
 10
136.4444552201
 20
112.9250199956
 30
0.0
 11
136.5548206704
 21
112.847740711
 31
0.0
  0
LINE
  5
28D
330
1F
100
AcDbEntity
  8
0
  6
Continuous
 62
     7
370
    15
100
AcDbLine
 10
143.1738196152
 20
112.847740711
 30
0.0
 11
143.2841925162
 21
112.9250199956
 31
0.0
  0
LINE
  5
28E
330
1F
100
AcDbEntity
  8
0
  6
Continuous
 62
     7
370
    15
100
AcDbLine
 10
143.8643245238
 20
112.3642464591
 30
0.0
 11
143.1738196152
 21
112.847740711
 31
0.0
  0
LINE
  5
28F
330
1F
100
AcDbEntity
  8
0
  6
Continuous
 62
     7
370
    15
100
AcDbLine
 10
136.5548206704
 20
112.847740711
 30
0.0
 11
135.8643232125
 21
112.3642464591
 31
0.0
  0
LINE
  5
290
330
1F
100
AcDbEntity
  8
0
  6
Continuous
 62
     7
370
    15
100
AcDbLine
 10
135.8643232125
 20
112.0940939945
 30
0.0
 11
136.4262609022
 21
111.7006204513
 31
0.0
  0
LINE
  5
291
330
1F
100
AcDbEntity
  8
0
  6
Continuous
 62
     7
370
    15
100
AcDbLine
 10
143.302386834
 20
111.7006204513
 30
0.0
 11
143.8643245238
 21
112.0940939945
 31
0.0
  0
LINE
  5
292
330
1F
100
AcDbEntity
  8
0
  6
Continuous
 62
     7
370
    15
100
AcDbLine
 10
241.3643209475
 20
131.6801914436
 30
0.0
 11
241.3643209475
 21
132.7006192369
 31
0.0
  0
LINE
  5
293
330
1F
100
AcDbEntity
  8
0
  6
Continuous
 62
     7
370
    15
100
AcDbLine
 10
183.3643226164
 20
132.7006192369
 30
0.0
 11
183.3643226164
 21
131.6801914436
 31
0.0
  0
ARC
  5
294
330
1F
100
AcDbEntity
  8
0
  6
Continuous
 62
     7
370
    15
100
AcDbCircle
 10
250.964321782
 20
123.6745693633
 30
0.0
 40
12.50000000000002
100
AcDbArc
 50
140.1746287392
 51
219.8253712608
  0
ARC
  5
295
330
1F
100
AcDbEntity
  8
0
  6
Continuous
 62
     7
370
    15
100
AcDbCircle
 10
173.764321782
 20
123.6745693633
 30
0.0
 40
12.5
100
AcDbArc
 50
320.1746287392
 51
39.8253712608
  0
LINE
  5
296
330
1F
100
AcDbEntity
  8
0
  6
Continuous
 62
     7
370
    15
100
AcDbLine
 10
241.3643209475
 20
114.7006200117
 30
0.0
 11
241.3643209475
 21
115.6689458949
 31
0.0
  0
LINE
  5
297
330
1F
100
AcDbEntity
  8
0
  6
Continuous
 62
     7
370
    15
100
AcDbLine
 10
183.3643226164
 20
115.6689458949
 30
0.0
 11
183.3643226164
 21
114.7006200117
 31
0.0
  0
LINE
  5
298
330
1F
100
AcDbEntity
  8
0
  6
Continuous
 62
     7
370
    15
100
AcDbLine
 10
227.3643214467
 20
94.7006206916
 30
0.0
 11
227.3643214467
 21
96.7006207866
 31
0.0
  0
LINE
  5
299
330
1F
100
AcDbEntity
  8
0
  6
Continuous
 62
     7
370
    15
100
AcDbLine
 10
197.3643221172
 20
96.7006207866
 30
0.0
 11
197.3643221172
 21
94.7006206916
 31
0.0
  0
LINE
  5
29A
330
1F
100
AcDbEntity
  8
0
  6
Continuous
 62
     7
370
    15
100
AcDbLine
 10
197.3643221172
 20
94.7006206916
 30
0.0
 11
199.3643215137
 21
92.7006205966
 31
0.0
  0
LINE
  5
29B
330
1F
100
AcDbEntity
  8
0
  6
Continuous
 62
     7
370
    15
100
AcDbLine
 10
225.3643220502
 20
92.7006205966
 30
0.0
 11
227.3643214467
 21
94.7006206916
 31
0.0
  0
LINE
  5
29C
330
1F
100
AcDbEntity
  8
0
  6
Continuous
 62
     7
370
    15
100
AcDbLine
 10
227.3643214467
 20
106.5006209028
 30
0.0
 11
227.1643217864
 21
106.7006205631
 31
0.0
  0
LINE
  5
29D
330
1F
100
AcDbEntity
  8
0
  6
Continuous
 62
     7
370
    15
100
AcDbLine
 10
197.5643217775
 20
106.7006205631
 30
0.0
 11
197.3643221172
 21
106.5006209028
 31
0.0
  0
LINE
  5
29E
330
1F
100
AcDbEntity
  8
0
  6
Continuous
 62
     7
370
    15
100
AcDbLine
 10
197.3643221172
 20
102.9006209647
 30
0.0
 11
197.5643217775
 21
102.7006208387
 31
0.0
  0
LINE
  5
29F
330
1F
100
AcDbEntity
  8
0
  6
Continuous
 62
     7
370
    15
100
AcDbLine
 10
227.1643217864
 20
102.7006208387
 30
0.0
 11
227.3643214467
 21
102.9006209647
 31
0.0
  0
LINE
  5
2A0
330
1F
100
AcDbEntity
  8
0
  6
Continuous
 62
     7
370
    15
100
AcDbLine
 10
227.3643214467
 20
102.9006209647
 30
0.0
 11
227.3643214467
 21
106.5006209028
 31
0.0
  0
LINE
  5
2A1
330
1F
100
AcDbEntity
  8
0
  6
Continuous
 62
     7
370
    15
100
AcDbLine
 10
197.3643221172
 20
106.5006209028
 30
0.0
 11
197.3643221172
 21
102.9006209647
 31
0.0
  0
LINE
  5
2A2
330
1F
100
AcDbEntity
  8
0
  6
Continuous
 62
     7
370
    15
100
AcDbLine
 10
204.364321402
 20
137.7006219191
 30
0.0
 11
204.364321402
 21
136.7006198925
 31
0.0
  0
LINE
  5
2A3
330
1F
100
AcDbEntity
  8
0
  6
Continuous
 62
     7
370
    15
100
AcDbLine
 10
220.3643221619
 20
136.7006198925
 30
0.0
 11
220.3643221619
 21
137.7006219191
 31
0.0
  0
LINE
  5
2A4
330
1F
100
AcDbEntity
  8
0
  6
Continuous
 62
     7
370
    15
100
AcDbLine
 10
299.8643202918
 20
144.7006212038
 30
0.0
 11
297.8643236893
 21
146.7006215317
 31
0.0
  0
LINE
  5
2A5
330
1F
100
AcDbEntity
  8
0
  6
Continuous
 62
     7
370
    15
100
AcDbLine
 10
271.8643231529
 20
146.7006215317
 30
0.0
 11
269.864322825
 21
144.7006212038
 31
0.0
  0
LINE
  5
2A6
330
1F
100
AcDbEntity
  8
0
  6
Continuous
 62
     7
370
    15
100
AcDbLine
 10
269.864322825
 20
144.7006212038
 30
0.0
 11
269.864322825
 21
142.700620876
 31
0.0
  0
LINE
  5
2A7
330
1F
100
AcDbEntity
  8
0
  6
Continuous
 62
     7
370
    15
100
AcDbLine
 10
299.8643202918
 20
142.700620876
 30
0.0
 11
299.8643202918
 21
144.7006212038
 31
0.0
  0
LINE
  5
2A8
330
1F
100
AcDbEntity
  8
0
  6
Continuous
 62
     7
370
    15
100
AcDbLine
 10
279.8643244642
 20
142.700620876
 30
0.0
 11
279.8643244642
 21
135.200620578
 31
0.0
  0
LINE
  5
2A9
330
1F
100
AcDbEntity
  8
0
  6
Continuous
 62
     7
370
    15
100
AcDbLine
 10
289.864322378
 20
135.200620578
 30
0.0
 11
289.864322378
 21
142.700620876
 31
0.0
  0
LINE
  5
2AA
330
1F
100
AcDbEntity
  8
0
  6
Continuous
 62
     7
370
    15
100
AcDbLine
 10
154.8643207389
 20
144.7006212038
 30
0.0
 11
152.864320411
 21
146.7006215317
 31
0.0
  0
LINE
  5
2AB
330
1F
100
AcDbEntity
  8
0
  6
Continuous
 62
     7
370
    15
100
AcDbLine
 10
126.8643198746
 20
146.7006215317
 30
0.0
 11
124.8643232721
 21
144.7006212038
 31
0.0
  0
LINE
  5
2AC
330
1F
100
AcDbEntity
  8
0
  6
Continuous
 62
     7
370
    15
100
AcDbLine
 10
124.8643232721
 20
144.7006212038
 30
0.0
 11
124.8643232721
 21
142.700620876
 31
0.0
  0
LINE
  5
2AD
330
1F
100
AcDbEntity
  8
0
  6
Continuous
 62
     7
370
    15
100
AcDbLine
 10
154.8643207389
 20
142.700620876
 30
0.0
 11
154.8643207389
 21
144.7006212038
 31
0.0
  0
LINE
  5
2AE
330
1F
100
AcDbEntity
  8
0
  6
Continuous
 62
     7
370
    15
100
AcDbLine
 10
134.8643211859
 20
142.700620876
 30
0.0
 11
134.8643211859
 21
135.200620578
 31
0.0
  0
LINE
  5
2AF
330
1F
100
AcDbEntity
  8
0
  6
Continuous
 62
     7
370
    15
100
AcDbLine
 10
144.8643190997
 20
135.200620578
 30
0.0
 11
144.8643190997
 21
142.700620876
 31
0.0
  0
LINE
  5
2B0
330
1F
100
AcDbEntity
  8
0
  6
Continuous
 62
     7
370
    15
100
AcDbLine
 10
144.8643190997
 20
112.9250199956
 30
0.0
 11
144.8643190997
 21
132.9250195486
 31
0.0
  0
LINE
  5
2B1
330
1F
100
AcDbEntity
  8
0
  6
Continuous
 62
     7
370
    15
100
AcDbLine
 10
134.8643211859
 20
132.9250195486
 30
0.0
 11
134.8643211859
 21
112.9250199956
 31
0.0
  0
LINE
  5
2B2
330
1F
100
AcDbEntity
  8
0
  6
Continuous
 62
     7
370
    15
100
AcDbLine
 10
289.864322378
 20
113.1157287819
 30
0.0
 11
289.864322378
 21
133.1157283348
 31
0.0
  0
LINE
  5
2B3
330
1F
100
AcDbEntity
  8
0
  6
Continuous
 62
     7
370
    15
100
AcDbLine
 10
279.8643244642
 20
133.1157283348
 30
0.0
 11
279.8643244642
 21
113.1157287819
 31
0.0
  0
LINE
  5
2B4
330
1F
100
AcDbEntity
  8
0
  6
Continuous
 62
     7
370
    15
100
AcDbLine
 10
299.8643202918
 20
94.7006206916
 30
0.0
 11
299.8643202918
 21
96.7006207866
 31
0.0
  0
LINE
  5
2B5
330
1F
100
AcDbEntity
  8
0
  6
Continuous
 62
     7
370
    15
100
AcDbLine
 10
269.864322825
 20
96.7006207866
 30
0.0
 11
269.864322825
 21
94.7006206916
 31
0.0
  0
LINE
  5
2B6
330
1F
100
AcDbEntity
  8
0
  6
Continuous
 62
     7
370
    15
100
AcDbLine
 10
269.864322825
 20
94.7006206916
 30
0.0
 11
271.8643231529
 21
92.7006205966
 31
0.0
  0
LINE
  5
2B7
330
1F
100
AcDbEntity
  8
0
  6
Continuous
 62
     7
370
    15
100
AcDbLine
 10
297.8643236893
 20
92.7006205966
 30
0.0
 11
299.8643202918
 21
94.7006206916
 31
0.0
  0
LINE
  5
2B8
330
1F
100
AcDbEntity
  8
0
  6
Continuous
 62
     7
370
    15
100
AcDbLine
 10
289.864322378
 20
102.7006208387
 30
0.0
 11
289.864322378
 21
111.7006204513
 31
0.0
  0
LINE
  5
2B9
330
1F
100
AcDbEntity
  8
0
  6
Continuous
 62
     7
370
    15
100
AcDbLine
 10
279.8643244642
 20
111.7006204513
 30
0.0
 11
279.8643244642
 21
102.7006208387
 31
0.0
  0
LINE
  5
2BA
330
1F
100
AcDbEntity
  8
0
  6
Continuous
 62
     7
370
    15
100
AcDbLine
 10
154.8643207389
 20
94.7006206916
 30
0.0
 11
154.8643207389
 21
96.7006207866
 31
0.0
  0
LINE
  5
2BB
330
1F
100
AcDbEntity
  8
0
  6
Continuous
 62
     7
370
    15
100
AcDbLine
 10
124.8643232721
 20
96.7006207866
 30
0.0
 11
124.8643232721
 21
94.7006206916
 31
0.0
  0
LINE
  5
2BC
330
1F
100
AcDbEntity
  8
0
  6
Continuous
 62
     7
370
    15
100
AcDbLine
 10
124.8643232721
 20
94.7006206916
 30
0.0
 11
126.8643198746
 21
92.7006205966
 31
0.0
  0
LINE
  5
2BD
330
1F
100
AcDbEntity
  8
0
  6
Continuous
 62
     7
370
    15
100
AcDbLine
 10
152.864320411
 20
92.7006205966
 30
0.0
 11
154.8643207389
 21
94.7006206916
 31
0.0
  0
LINE
  5
2BE
330
1F
100
AcDbEntity
  8
0
  6
Continuous
 62
     7
370
    15
100
AcDbLine
 10
144.8643190997
 20
102.7006208387
 30
0.0
 11
144.8643190997
 21
111.7006204513
 31
0.0
  0
LINE
  5
2BF
330
1F
100
AcDbEntity
  8
0
  6
Continuous
 62
     7
370
    15
100
AcDbLine
 10
134.8643211859
 20
111.7006204513
 30
0.0
 11
134.8643211859
 21
102.7006208387
 31
0.0
  0
LINE
  5
2C0
330
1F
100
AcDbEntity
  8
0
  6
Continuous
 62
     7
370
    15
100
AcDbLine
 10
232.3643213349
 20
96.7006207866
 30
0.0
 11
232.3643213349
 21
102.7006208387
 31
0.0
  0
LINE
  5
2C1
330
1F
100
AcDbEntity
  8
0
  6
Continuous
 62
     7
370
    15
100
AcDbLine
 10
192.364322229
 20
102.7006208387
 30
0.0
 11
192.364322229
 21
96.7006207866
 31
0.0
  0
LINE
  5
2C2
330
1F
100
AcDbEntity
  8
0
  6
Continuous
 62
     7
370
    15
100
AcDbLine
 10
119.8643205899
 20
102.7006208387
 30
0.0
 11
119.8643205899
 21
96.7006207866
 31
0.0
  0
LINE
  5
2C3
330
1F
100
AcDbEntity
  8
0
  6
Continuous
 62
     7
370
    15
100
AcDbLine
 10
304.864322974
 20
96.7006207866
 30
0.0
 11
304.864322974
 21
102.7006208387
 31
0.0
  0
LINE
  5
2C4
330
1F
100
AcDbEntity
  8
0
  6
Continuous
 62
     7
370
    15
100
AcDbLine
 10
197.3643221172
 20
133.7006212634
 30
0.0
 11
227.3643214467
 21
133.7006212634
 31
0.0
  0
LINE
  5
2C5
330
1F
100
AcDbEntity
  8
0
  6
Continuous
 62
     7
370
    15
100
AcDbLine
 10
197.5041471633
 20
134.7006195647
 30
0.0
 11
197.3643221172
 21
134.7006195647
 31
0.0
  0
LINE
  5
2C6
330
1F
100
AcDbEntity
  8
0
  6
Continuous
 62
     7
370
    15
100
AcDbLine
 10
227.3643214467
 20
134.7006195647
 30
0.0
 11
197.5041471633
 21
134.7006195647
 31
0.0
  0
LINE
  5
2C7
330
1F
100
AcDbEntity
  8
0
  6
Continuous
 62
     7
370
    15
100
AcDbLine
 10
199.4855042758
 20
136.7006198925
 30
0.0
 11
225.3643220502
 21
136.7006198925
 31
0.0
  0
LINE
  5
2C8
330
1F
100
AcDbEntity
  8
0
  6
Continuous
 62
     7
370
    15
100
AcDbLine
 10
199.3643215137
 20
136.7006198925
 30
0.0
 11
199.4855042758
 21
136.7006198925
 31
0.0
  0
LINE
  5
2C9
330
1F
100
AcDbEntity
  8
0
  6
Continuous
 62
     7
370
    15
100
AcDbLine
 10
218.2371702256
 20
113.7006217105
 30
0.0
 11
227.0643219563
 21
113.7006217105
 31
0.0
  0
LINE
  5
2CA
330
1F
100
AcDbEntity
  8
0
  6
Continuous
 62
     7
370
    15
100
AcDbLine
 10
197.6643216076
 20
113.7006217105
 30
0.0
 11
218.2371702256
 21
113.7006217105
 31
0.0
  0
LINE
  5
2CB
330
1F
100
AcDbEntity
  8
0
  6
Continuous
 62
     7
370
    15
100
AcDbLine
 10
218.3570244561
 20
113.4006203574
 30
0.0
 11
197.3643221172
 21
113.4006203574
 31
0.0
  0
LINE
  5
2CC
330
1F
100
AcDbEntity
  8
0
  6
Continuous
 62
     7
370
    15
100
AcDbLine
 10
227.3643214467
 20
113.4006203574
 30
0.0
 11
218.3570244561
 21
113.4006203574
 31
0.0
  0
LINE
  5
2CD
330
1F
100
AcDbEntity
  8
0
  6
Continuous
 62
     7
370
    15
100
AcDbLine
 10
218.3570244561
 20
107.0006209848
 30
0.0
 11
227.3643214467
 21
107.0006209848
 31
0.0
  0
LINE
  5
2CE
330
1F
100
AcDbEntity
  8
0
  6
Continuous
 62
     7
370
    15
100
AcDbLine
 10
197.3643221172
 20
107.0006209848
 30
0.0
 11
218.3570244561
 21
107.0006209848
 31
0.0
  0
LINE
  5
2CF
330
1F
100
AcDbEntity
  8
0
  6
Continuous
 62
     7
370
    15
100
AcDbLine
 10
241.3143219637
 20
133.3306217057
 30
0.0
 11
183.4143216002
 21
133.3306217057
 31
0.0
  0
LINE
  5
2D0
330
1F
100
AcDbEntity
  8
0
  6
Continuous
 62
     7
370
    15
100
AcDbLine
 10
241.3143219637
 20
132.8306206924
 30
0.0
 11
183.4143216002
 21
132.8306206924
 31
0.0
  0
LINE
  5
2D1
330
1F
100
AcDbEntity
  8
0
  6
Continuous
 62
     7
370
    15
100
AcDbLine
 10
183.4143216002
 20
114.0706212682
 30
0.0
 11
241.3143219637
 21
114.0706212682
 31
0.0
  0
LINE
  5
2D2
330
1F
100
AcDbEntity
  8
0
  6
Continuous
 62
     7
370
    15
100
AcDbLine
 10
183.4143216002
 20
114.5706204188
 30
0.0
 11
241.3143219637
 21
114.5706204188
 31
0.0
  0
LINE
  5
2D3
330
1F
100
AcDbEntity
  8
0
  6
Continuous
 62
     7
370
    15
100
AcDbLine
 10
288.7579931157
 20
134.6327671272
 30
0.0
 11
288.8643203514
 21
134.6327671272
 31
0.0
  0
LINE
  5
2D4
330
1F
100
AcDbEntity
  8
0
  6
Continuous
 62
     7
370
    15
100
AcDbLine
 10
280.8643190401
 20
134.6327671272
 30
0.0
 11
288.7579931157
 21
134.6327671272
 31
0.0
  0
LINE
  5
2D5
330
1F
100
AcDbEntity
  8
0
  6
Continuous
 62
     7
370
    15
100
AcDbLine
 10
288.0858464378
 20
135.1162613792
 30
0.0
 11
288.1738228935
 21
135.1162613792
 31
0.0
  0
LINE
  5
2D6
330
1F
100
AcDbEntity
  8
0
  6
Continuous
 62
     7
370
    15
100
AcDbLine
 10
281.5548239487
 20
135.1162613792
 30
0.0
 11
288.0858464378
 21
135.1162613792
 31
0.0
  0
LINE
  5
2D7
330
1F
100
AcDbEntity
  8
0
  6
Continuous
 62
     7
370
    15
100
AcDbLine
 10
288.7579931157
 20
134.3626128
 30
0.0
 11
288.8643203514
 21
134.3626128
 31
0.0
  0
LINE
  5
2D8
330
1F
100
AcDbEntity
  8
0
  6
Continuous
 62
     7
370
    15
100
AcDbLine
 10
280.8643190401
 20
134.3626128
 30
0.0
 11
288.7579931157
 21
134.3626128
 31
0.0
  0
LINE
  5
2D9
330
1F
100
AcDbEntity
  8
0
  6
Continuous
 62
     7
370
    15
100
AcDbLine
 10
288.7579931157
 20
133.3956280214
 30
0.0
 11
288.8643203514
 21
133.3956280214
 31
0.0
  0
LINE
  5
2DA
330
1F
100
AcDbEntity
  8
0
  6
Continuous
 62
     7
370
    15
100
AcDbLine
 10
280.8643190401
 20
133.3956280214
 30
0.0
 11
288.7579931157
 21
133.3956280214
 31
0.0
  0
LINE
  5
2DB
330
1F
100
AcDbEntity
  8
0
  6
Continuous
 62
     7
370
    15
100
AcDbLine
 10
288.0858464378
 20
133.8791222734
 30
0.0
 11
288.1738228935
 21
133.8791222734
 31
0.0
  0
LINE
  5
2DC
330
1F
100
AcDbEntity
  8
0
  6
Continuous
 62
     7
370
    15
100
AcDbLine
 10
281.5548239487
 20
133.8791222734
 30
0.0
 11
288.0858464378
 21
133.8791222734
 31
0.0
  0
LINE
  5
2DD
330
1F
100
AcDbEntity
  8
0
  6
Continuous
 62
     7
370
    15
100
AcDbLine
 10
288.7579931157
 20
133.1254736942
 30
0.0
 11
288.8643203514
 21
133.1254736942
 31
0.0
  0
LINE
  5
2DE
330
1F
100
AcDbEntity
  8
0
  6
Continuous
 62
     7
370
    15
100
AcDbLine
 10
280.8643190401
 20
133.1254736942
 30
0.0
 11
288.7579931157
 21
133.1254736942
 31
0.0
  0
LINE
  5
2DF
330
1F
100
AcDbEntity
  8
0
  6
Continuous
 62
     7
370
    15
100
AcDbLine
 10
288.7579931157
 20
112.3642464591
 30
0.0
 11
288.8643203514
 21
112.3642464591
 31
0.0
  0
LINE
  5
2E0
330
1F
100
AcDbEntity
  8
0
  6
Continuous
 62
     7
370
    15
100
AcDbLine
 10
280.8643190401
 20
112.3642464591
 30
0.0
 11
288.7579931157
 21
112.3642464591
 31
0.0
  0
LINE
  5
2E1
330
1F
100
AcDbEntity
  8
0
  6
Continuous
 62
     7
370
    15
100
AcDbLine
 10
288.7579931157
 20
112.0940939945
 30
0.0
 11
288.8643203514
 21
112.0940939945
 31
0.0
  0
LINE
  5
2E2
330
1F
100
AcDbEntity
  8
0
  6
Continuous
 62
     7
370
    15
100
AcDbLine
 10
280.8643190401
 20
112.0940939945
 30
0.0
 11
288.7579931157
 21
112.0940939945
 31
0.0
  0
LINE
  5
2E3
330
1F
100
AcDbEntity
  8
0
  6
Continuous
 62
     7
370
    15
100
AcDbLine
 10
288.0858464378
 20
112.847740711
 30
0.0
 11
288.1738228935
 21
112.847740711
 31
0.0
  0
LINE
  5
2E4
330
1F
100
AcDbEntity
  8
0
  6
Continuous
 62
     7
370
    15
100
AcDbLine
 10
281.5548239487
 20
112.847740711
 30
0.0
 11
288.0858464378
 21
112.847740711
 31
0.0
  0
LINE
  5
2E5
330
1F
100
AcDbEntity
  8
0
  6
Continuous
 62
     7
370
    15
100
AcDbLine
 10
143.8617242711
 20
134.6327671272
 30
0.0
 11
143.8643245238
 21
134.6327671272
 31
0.0
  0
LINE
  5
2E6
330
1F
100
AcDbEntity
  8
0
  6
Continuous
 62
     7
370
    15
100
AcDbLine
 10
135.8643232125
 20
134.6327671272
 30
0.0
 11
143.8617242711
 21
134.6327671272
 31
0.0
  0
LINE
  5
2E7
330
1F
100
AcDbEntity
  8
0
  6
Continuous
 62
     7
370
    15
100
AcDbLine
 10
143.8617242711
 20
134.3626128
 30
0.0
 11
143.8643245238
 21
134.3626128
 31
0.0
  0
LINE
  5
2E8
330
1F
100
AcDbEntity
  8
0
  6
Continuous
 62
     7
370
    15
100
AcDbLine
 10
135.8643232125
 20
134.3626128
 30
0.0
 11
143.8617242711
 21
134.3626128
 31
0.0
  0
LINE
  5
2E9
330
1F
100
AcDbEntity
  8
0
  6
Continuous
 62
     7
370
    15
100
AcDbLine
 10
143.171673848
 20
135.1162613792
 30
0.0
 11
143.1738196152
 21
135.1162613792
 31
0.0
  0
LINE
  5
2EA
330
1F
100
AcDbEntity
  8
0
  6
Continuous
 62
     7
370
    15
100
AcDbLine
 10
136.5548206704
 20
135.1162613792
 30
0.0
 11
143.171673848
 21
135.1162613792
 31
0.0
  0
LINE
  5
2EB
330
1F
100
AcDbEntity
  8
0
  6
Continuous
 62
     7
370
    15
100
AcDbLine
 10
143.171673848
 20
133.8791222734
 30
0.0
 11
143.1738196152
 21
133.8791222734
 31
0.0
  0
LINE
  5
2EC
330
1F
100
AcDbEntity
  8
0
  6
Continuous
 62
     7
370
    15
100
AcDbLine
 10
136.5548206704
 20
133.8791222734
 30
0.0
 11
143.171673848
 21
133.8791222734
 31
0.0
  0
LINE
  5
2ED
330
1F
100
AcDbEntity
  8
0
  6
Continuous
 62
     7
370
    15
100
AcDbLine
 10
143.8617242711
 20
133.3956280214
 30
0.0
 11
143.8643245238
 21
133.3956280214
 31
0.0
  0
LINE
  5
2EE
330
1F
100
AcDbEntity
  8
0
  6
Continuous
 62
     7
370
    15
100
AcDbLine
 10
135.8643232125
 20
133.3956280214
 30
0.0
 11
143.8617242711
 21
133.3956280214
 31
0.0
  0
LINE
  5
2EF
330
1F
100
AcDbEntity
  8
0
  6
Continuous
 62
     7
370
    15
100
AcDbLine
 10
143.8617242711
 20
133.1254736942
 30
0.0
 11
143.8643245238
 21
133.1254736942
 31
0.0
  0
LINE
  5
2F0
330
1F
100
AcDbEntity
  8
0
  6
Continuous
 62
     7
370
    15
100
AcDbLine
 10
135.8643232125
 20
133.1254736942
 30
0.0
 11
143.8617242711
 21
133.1254736942
 31
0.0
  0
LINE
  5
2F1
330
1F
100
AcDbEntity
  8
0
  6
Continuous
 62
     7
370
    15
100
AcDbLine
 10
143.8617242711
 20
112.3642464591
 30
0.0
 11
143.8643245238
 21
112.3642464591
 31
0.0
  0
LINE
  5
2F2
330
1F
100
AcDbEntity
  8
0
  6
Continuous
 62
     7
370
    15
100
AcDbLine
 10
135.8643232125
 20
112.3642464591
 30
0.0
 11
143.8617242711
 21
112.3642464591
 31
0.0
  0
LINE
  5
2F3
330
1F
100
AcDbEntity
  8
0
  6
Continuous
 62
     7
370
    15
100
AcDbLine
 10
143.8617242711
 20
112.0940939945
 30
0.0
 11
143.8643245238
 21
112.0940939945
 31
0.0
  0
LINE
  5
2F4
330
1F
100
AcDbEntity
  8
0
  6
Continuous
 62
     7
370
    15
100
AcDbLine
 10
135.8643232125
 20
112.0940939945
 30
0.0
 11
143.8617242711
 21
112.0940939945
 31
0.0
  0
LINE
  5
2F5
330
1F
100
AcDbEntity
  8
0
  6
Continuous
 62
     7
370
    15
100
AcDbLine
 10
143.171673848
 20
112.847740711
 30
0.0
 11
143.1738196152
 21
112.847740711
 31
0.0
  0
LINE
  5
2F6
330
1F
100
AcDbEntity
  8
0
  6
Continuous
 62
     7
370
    15
100
AcDbLine
 10
136.5548206704
 20
112.847740711
 30
0.0
 11
143.171673848
 21
112.847740711
 31
0.0
  0
LINE
  5
2F7
330
1F
100
AcDbEntity
  8
0
  6
Continuous
 62
     7
370
    15
100
AcDbLine
 10
183.3643226164
 20
132.7006192369
 30
0.0
 11
241.3643209475
 21
132.7006192369
 31
0.0
  0
LINE
  5
2F8
330
1F
100
AcDbEntity
  8
0
  6
Continuous
 62
     7
370
    15
100
AcDbLine
 10
204.8159909646
 20
131.6801914436
 30
0.0
 11
241.3643209475
 21
131.6801914436
 31
0.0
  0
LINE
  5
2F9
330
1F
100
AcDbEntity
  8
0
  6
Continuous
 62
     7
370
    15
100
AcDbLine
 10
183.3643226164
 20
131.6801914436
 30
0.0
 11
204.8159909646
 21
131.6801914436
 31
0.0
  0
LINE
  5
2FA
330
1F
100
AcDbEntity
  8
0
  6
Continuous
 62
     7
370
    15
100
AcDbLine
 10
241.3643209475
 20
115.6689458949
 30
0.0
 11
183.3643226164
 21
115.6689458949
 31
0.0
  0
LINE
  5
2FB
330
1F
100
AcDbEntity
  8
0
  6
Continuous
 62
     7
370
    15
100
AcDbLine
 10
183.3643226164
 20
114.7006200117
 30
0.0
 11
241.3643209475
 21
114.7006200117
 31
0.0
  0
LINE
  5
2FC
330
1F
100
AcDbEntity
  8
0
  6
Continuous
 62
     7
370
    15
100
AcDbLine
 10
197.3643221172
 20
94.7006206916
 30
0.0
 11
227.3643214467
 21
94.7006206916
 31
0.0
  0
LINE
  5
2FD
330
1F
100
AcDbEntity
  8
0
  6
Continuous
 62
     7
370
    15
100
AcDbLine
 10
199.3678083855
 20
92.7006205966
 30
0.0
 11
199.3643215137
 21
92.7006205966
 31
0.0
  0
LINE
  5
2FE
330
1F
100
AcDbEntity
  8
0
  6
Continuous
 62
     7
370
    15
100
AcDbLine
 10
225.3643220502
 20
92.7006205966
 30
0.0
 11
199.3678083855
 21
92.7006205966
 31
0.0
  0
LINE
  5
2FF
330
1F
100
AcDbEntity
  8
0
  6
Continuous
 62
     7
370
    15
100
AcDbLine
 10
197.5643217775
 20
106.7006205631
 30
0.0
 11
227.1643217864
 21
106.7006205631
 31
0.0
  0
LINE
  5
300
330
1F
100
AcDbEntity
  8
0
  6
Continuous
 62
     7
370
    15
100
AcDbLine
 10
227.3643214467
 20
106.5006209028
 30
0.0
 11
197.3643221172
 21
106.5006209028
 31
0.0
  0
LINE
  5
301
330
1F
100
AcDbEntity
  8
0
  6
Continuous
 62
     7
370
    15
100
AcDbLine
 10
197.3643221172
 20
102.9006209647
 30
0.0
 11
227.3643214467
 21
102.9006209647
 31
0.0
  0
LINE
  5
302
330
1F
100
AcDbEntity
  8
0
  6
Continuous
 62
     7
370
    15
100
AcDbLine
 10
206.3915373037
 20
137.7006219191
 30
0.0
 11
220.3643221619
 21
137.7006219191
 31
0.0
  0
LINE
  5
303
330
1F
100
AcDbEntity
  8
0
  6
Continuous
 62
     7
370
    15
100
AcDbLine
 10
204.364321402
 20
137.7006219191
 30
0.0
 11
206.3915373037
 21
137.7006219191
 31
0.0
  0
LINE
  5
304
330
1F
100
AcDbEntity
  8
0
  6
Continuous
 62
     7
370
    15
100
AcDbLine
 10
270.0044570702
 20
144.7006212038
 30
0.0
 11
269.864322825
 21
144.7006212038
 31
0.0
  0
LINE
  5
305
330
1F
100
AcDbEntity
  8
0
  6
Continuous
 62
     7
370
    15
100
AcDbLine
 10
299.8643202918
 20
144.7006212038
 30
0.0
 11
270.0044570702
 21
144.7006212038
 31
0.0
  0
LINE
  5
306
330
1F
100
AcDbEntity
  8
0
  6
Continuous
 62
     7
370
    15
100
AcDbLine
 10
271.9857713419
 20
146.7006215317
 30
0.0
 11
297.8643236893
 21
146.7006215317
 31
0.0
  0
LINE
  5
307
330
1F
100
AcDbEntity
  8
0
  6
Continuous
 62
     7
370
    15
100
AcDbLine
 10
271.8643231529
 20
146.7006215317
 30
0.0
 11
271.9857713419
 21
146.7006215317
 31
0.0
  0
LINE
  5
308
330
1F
100
AcDbEntity
  8
0
  6
Continuous
 62
     7
370
    15
100
AcDbLine
 10
270.0044570702
 20
142.700620876
 30
0.0
 11
269.864322825
 21
142.700620876
 31
0.0
  0
LINE
  5
309
330
1F
100
AcDbEntity
  8
0
  6
Continuous
 62
     7
370
    15
100
AcDbLine
 10
299.8643202918
 20
142.700620876
 30
0.0
 11
270.0044570702
 21
142.700620876
 31
0.0
  0
LINE
  5
30A
330
1F
100
AcDbEntity
  8
0
  6
Continuous
 62
     7
370
    15
100
AcDbLine
 10
279.9110321539
 20
135.200620578
 30
0.0
 11
279.8643244642
 21
135.200620578
 31
0.0
  0
LINE
  5
30B
330
1F
100
AcDbEntity
  8
0
  6
Continuous
 62
     7
370
    15
100
AcDbLine
 10
289.864322378
 20
135.200620578
 30
0.0
 11
279.9110321539
 21
135.200620578
 31
0.0
  0
LINE
  5
30C
330
1F
100
AcDbEntity
  8
0
  6
Continuous
 62
     7
370
    15
100
AcDbLine
 10
154.8643207389
 20
144.7006212038
 30
0.0
 11
124.8643232721
 21
144.7006212038
 31
0.0
  0
LINE
  5
30D
330
1F
100
AcDbEntity
  8
0
  6
Continuous
 62
     7
370
    15
100
AcDbLine
 10
126.8643198746
 20
146.7006215317
 30
0.0
 11
152.864320411
 21
146.7006215317
 31
0.0
  0
LINE
  5
30E
330
1F
100
AcDbEntity
  8
0
  6
Continuous
 62
     7
370
    15
100
AcDbLine
 10
154.8643207389
 20
142.700620876
 30
0.0
 11
124.8643232721
 21
142.700620876
 31
0.0
  0
LINE
  5
30F
330
1F
100
AcDbEntity
  8
0
  6
Continuous
 62
     7
370
    15
100
AcDbLine
 10
144.8643190997
 20
135.200620578
 30
0.0
 11
134.8643211859
 21
135.200620578
 31
0.0
  0
LINE
  5
310
330
1F
100
AcDbEntity
  8
0
  6
Continuous
 62
     7
370
    15
100
AcDbLine
 10
134.8643211859
 20
112.9250199956
 30
0.0
 11
144.8643190997
 21
112.9250199956
 31
0.0
  0
LINE
  5
311
330
1F
100
AcDbEntity
  8
0
  6
Continuous
 62
     7
370
    15
100
AcDbLine
 10
134.8643211859
 20
132.9250195486
 30
0.0
 11
144.8643190997
 21
132.9250195486
 31
0.0
  0
LINE
  5
312
330
1F
100
AcDbEntity
  8
0
  6
Continuous
 62
     7
370
    15
100
AcDbLine
 10
279.8643244642
 20
113.1157287819
 30
0.0
 11
289.864322378
 21
113.1157287819
 31
0.0
  0
LINE
  5
313
330
1F
100
AcDbEntity
  8
0
  6
Continuous
 62
     7
370
    15
100
AcDbLine
 10
279.8643244642
 20
133.1157283348
 30
0.0
 11
289.864322378
 21
133.1157283348
 31
0.0
  0
LINE
  5
314
330
1F
100
AcDbEntity
  8
0
  6
Continuous
 62
     7
370
    15
100
AcDbLine
 10
298.5522283452
 20
94.7006206916
 30
0.0
 11
299.8643202918
 21
94.7006206916
 31
0.0
  0
LINE
  5
315
330
1F
100
AcDbEntity
  8
0
  6
Continuous
 62
     7
370
    15
100
AcDbLine
 10
269.864322825
 20
94.7006206916
 30
0.0
 11
298.5522283452
 21
94.7006206916
 31
0.0
  0
LINE
  5
316
330
1F
100
AcDbEntity
  8
0
  6
Continuous
 62
     7
370
    15
100
AcDbLine
 10
296.7271713751
 20
92.7006205966
 30
0.0
 11
271.8643231529
 21
92.7006205966
 31
0.0
  0
LINE
  5
317
330
1F
100
AcDbEntity
  8
0
  6
Continuous
 62
     7
370
    15
100
AcDbLine
 10
297.8643236893
 20
92.7006205966
 30
0.0
 11
296.7271713751
 21
92.7006205966
 31
0.0
  0
LINE
  5
318
330
1F
100
AcDbEntity
  8
0
  6
Continuous
 62
     7
370
    15
100
AcDbLine
 10
289.4269583958
 20
111.7006204513
 30
0.0
 11
289.864322378
 21
111.7006204513
 31
0.0
  0
LINE
  5
319
330
1F
100
AcDbEntity
  8
0
  6
Continuous
 62
     7
370
    15
100
AcDbLine
 10
279.8643244642
 20
111.7006204513
 30
0.0
 11
289.4269583958
 21
111.7006204513
 31
0.0
  0
LINE
  5
31A
330
1F
100
AcDbEntity
  8
0
  6
Continuous
 62
     7
370
    15
100
AcDbLine
 10
124.8643232721
 20
94.7006206916
 30
0.0
 11
154.8643207389
 21
94.7006206916
 31
0.0
  0
LINE
  5
31B
330
1F
100
AcDbEntity
  8
0
  6
Continuous
 62
     7
370
    15
100
AcDbLine
 10
152.864320411
 20
92.7006205966
 30
0.0
 11
126.8643198746
 21
92.7006205966
 31
0.0
  0
LINE
  5
31C
330
1F
100
AcDbEntity
  8
0
  6
Continuous
 62
     7
370
    15
100
AcDbLine
 10
134.8643211859
 20
111.7006204513
 30
0.0
 11
144.8643190997
 21
111.7006204513
 31
0.0
  0
LINE
  5
31D
330
1F
100
AcDbEntity
  8
0
  6
Continuous
 62
     7
370
    15
100
AcDbLine
 10
192.364322229
 20
96.7006207866
 30
0.0
 11
232.3643213349
 21
96.7006207866
 31
0.0
  0
LINE
  5
31E
330
1F
100
AcDbEntity
  8
0
  6
Continuous
 62
     7
370
    15
100
AcDbLine
 10
192.364322229
 20
102.7006208387
 30
0.0
 11
232.3643213349
 21
102.7006208387
 31
0.0
  0
LINE
  5
31F
330
1F
100
AcDbEntity
  8
0
  6
Continuous
 62
     7
370
    15
100
AcDbLine
 10
281.7346735137
 20
102.7006208387
 30
0.0
 11
281.7346735137
 21
96.7006207866
 31
0.0
  0
LINE
  5
320
330
1F
100
AcDbEntity
  8
0
  6
Continuous
 62
     7
370
    15
100
AcDbLine
 10
232.3643213349
 20
96.7006207866
 30
0.0
 11
281.7346735137
 21
96.7006207866
 31
0.0
  0
LINE
  5
321
330
1F
100
AcDbEntity
  8
0
  6
Continuous
 62
     7
370
    15
100
AcDbLine
 10
232.3643213349
 20
102.7006208387
 30
0.0
 11
281.7346735137
 21
102.7006208387
 31
0.0
  0
LINE
  5
322
330
1F
100
AcDbEntity
  8
0
  6
Continuous
 62
     7
370
    15
100
AcDbLine
 10
142.9939700502
 20
102.7006208387
 30
0.0
 11
142.9939700502
 21
96.7006207866
 31
0.0
  0
LINE
  5
323
330
1F
100
AcDbEntity
  8
0
  6
Continuous
 62
     7
370
    15
100
AcDbLine
 10
142.9939700502
 20
96.7006207866
 30
0.0
 11
192.364322229
 21
96.7006207866
 31
0.0
  0
LINE
  5
324
330
1F
100
AcDbEntity
  8
0
  6
Continuous
 62
     7
370
    15
100
AcDbLine
 10
142.9939700502
 20
102.7006208387
 30
0.0
 11
192.364322229
 21
102.7006208387
 31
0.0
  0
LINE
  5
325
330
1F
100
AcDbEntity
  8
0
  6
Continuous
 62
     7
370
    15
100
AcDbLine
 10
119.8643205899
 20
96.7006207866
 30
0.0
 11
142.9939700502
 21
96.7006207866
 31
0.0
  0
LINE
  5
326
330
1F
100
AcDbEntity
  8
0
  6
Continuous
 62
     7
370
    15
100
AcDbLine
 10
119.8643205899
 20
102.7006208387
 30
0.0
 11
142.9939700502
 21
102.7006208387
 31
0.0
  0
LINE
  5
327
330
1F
100
AcDbEntity
  8
0
  6
Continuous
 62
     7
370
    15
100
AcDbLine
 10
281.7346735137
 20
96.7006207866
 30
0.0
 11
304.864322974
 21
96.7006207866
 31
0.0
  0
LINE
  5
328
330
1F
100
AcDbEntity
  8
0
  6
Continuous
 62
     7
370
    15
100
AcDbLine
 10
281.7346735137
 20
102.7006208387
 30
0.0
 11
304.864322974
 21
102.7006208387
 31
0.0
  0
LINE
  5
329
330
1F
100
AcDbEntity
  8
0
  6
Continuous
 62
     7
370
    15
100
AcDbLine
 10
197.3643221172
 20
402.3060517461
 30
0.0
 11
199.3643215137
 21
400.3060514183
 31
0.0
  0
LINE
  5
32A
330
1F
100
AcDbEntity
  8
0
  6
Continuous
 62
     7
370
    15
100
AcDbLine
 10
225.3643220502
 20
400.3060514183
 30
0.0
 11
227.3643214467
 21
402.3060517461
 31
0.0
  0
LINE
  5
32B
330
1F
100
AcDbEntity
  8
0
  6
Continuous
 62
     7
370
    15
100
AcDbLine
 10
227.3643214467
 20
402.3060517461
 30
0.0
 11
227.3643214467
 21
403.3060500474
 31
0.0
  0
LINE
  5
32C
330
1F
100
AcDbEntity
  8
0
  6
Continuous
 62
     7
370
    15
100
AcDbLine
 10
197.3643221172
 20
403.3060500474
 30
0.0
 11
197.3643221172
 21
402.3060517461
 31
0.0
  0
LINE
  5
32D
330
1F
100
AcDbEntity
  8
0
  6
Continuous
 62
     7
370
    15
100
AcDbLine
 10
222.1143219831
 20
403.3060500474
 30
0.0
 11
222.1143219831
 21
403.6760496051
 31
0.0
  0
LINE
  5
32E
330
1F
100
AcDbEntity
  8
0
  6
Continuous
 62
     7
370
    15
100
AcDbLine
 10
202.6143215808
 20
403.6760496051
 30
0.0
 11
202.6143215808
 21
403.3060500474
 31
0.0
  0
LINE
  5
32F
330
1F
100
AcDbEntity
  8
0
  6
Continuous
 62
     7
370
    15
100
AcDbLine
 10
221.9443220856
 20
404.1760506184
 30
0.0
 11
221.8143215614
 21
404.3060520739
 31
0.0
  0
LINE
  5
330
330
1F
100
AcDbEntity
  8
0
  6
Continuous
 62
     7
370
    15
100
AcDbLine
 10
202.9143220025
 20
404.3060520739
 30
0.0
 11
202.7843214783
 21
404.1760506184
 31
0.0
  0
LINE
  5
331
330
1F
100
AcDbEntity
  8
0
  6
Continuous
 62
     7
370
    15
100
AcDbLine
 10
197.3643221172
 20
423.6060509534
 30
0.0
 11
197.6643216076
 21
423.3060496003
 31
0.0
  0
LINE
  5
332
330
1F
100
AcDbEntity
  8
0
  6
Continuous
 62
     7
370
    15
100
AcDbLine
 10
227.0643219563
 20
423.3060496003
 30
0.0
 11
227.3643214467
 21
423.6060509534
 31
0.0
  0
LINE
  5
333
330
1F
100
AcDbEntity
  8
0
  6
Continuous
 62
     7
370
    15
100
AcDbLine
 10
197.3643221172
 20
430.006050326
 30
0.0
 11
197.3643221172
 21
423.6060509534
 31
0.0
  0
LINE
  5
334
330
1F
100
AcDbEntity
  8
0
  6
Continuous
 62
     7
370
    15
100
AcDbLine
 10
227.3643214467
 20
423.6060509534
 30
0.0
 11
227.3643214467
 21
430.006050326
 31
0.0
  0
LINE
  5
335
330
1F
100
AcDbEntity
  8
0
  6
Continuous
 62
     7
370
    15
100
AcDbLine
 10
227.3643214467
 20
430.006050326
 30
0.0
 11
227.0643219563
 21
430.3060507477
 31
0.0
  0
LINE
  5
336
330
1F
100
AcDbEntity
  8
0
  6
Continuous
 62
     7
370
    15
100
AcDbLine
 10
197.6643216076
 20
430.3060507477
 30
0.0
 11
197.3643221172
 21
430.006050326
 31
0.0
  0
LINE
  5
337
330
1F
100
AcDbEntity
  8
0
  6
Continuous
 62
     7
370
    15
100
AcDbLine
 10
202.7843214783
 20
422.436050892
 30
0.0
 11
202.9143220025
 21
422.3060512991
 31
0.0
  0
LINE
  5
338
330
1F
100
AcDbEntity
  8
0
  6
Continuous
 62
     7
370
    15
100
AcDbLine
 10
221.8143215614
 20
422.3060512991
 30
0.0
 11
221.9443220856
 21
422.436050892
 31
0.0
  0
LINE
  5
339
330
1F
100
AcDbEntity
  8
0
  6
Continuous
 62
     7
370
    15
100
AcDbLine
 10
202.6143215808
 20
423.3060496003
 30
0.0
 11
202.6143215808
 21
422.9360500426
 31
0.0
  0
LINE
  5
33A
330
1F
100
AcDbEntity
  8
0
  6
Continuous
 62
     7
370
    15
100
AcDbLine
 10
222.1143219831
 20
422.9360500426
 30
0.0
 11
222.1143219831
 21
423.3060496003
 31
0.0
  0
LINE
  5
33B
330
1F
100
AcDbEntity
  8
0
  6
Continuous
 62
     7
370
    15
100
AcDbLine
 10
241.3143219637
 20
403.6760496051
 30
0.0
 11
241.3143219637
 21
404.1760506184
 31
0.0
  0
LINE
  5
33C
330
1F
100
AcDbEntity
  8
0
  6
Continuous
 62
     7
370
    15
100
AcDbLine
 10
183.4143216002
 20
404.1760506184
 30
0.0
 11
183.4143216002
 21
403.6760496051
 31
0.0
  0
LINE
  5
33D
330
1F
100
AcDbEntity
  8
0
  6
Continuous
 62
     7
370
    15
100
AcDbLine
 10
183.4143216002
 20
422.9360500426
 30
0.0
 11
183.4143216002
 21
422.436050892
 31
0.0
  0
LINE
  5
33E
330
1F
100
AcDbEntity
  8
0
  6
Continuous
 62
     7
370
    15
100
AcDbLine
 10
241.3143219637
 20
422.436050892
 30
0.0
 11
241.3143219637
 21
422.9360500426
 31
0.0
  0
LINE
  5
33F
330
1F
100
AcDbEntity
  8
0
  6
Continuous
 62
     7
370
    15
100
AcDbLine
 10
280.8643190401
 20
402.3739041836
 30
0.0
 11
281.5548239487
 21
401.8904099316
 31
0.0
  0
LINE
  5
340
330
1F
100
AcDbEntity
  8
0
  6
Continuous
 62
     7
370
    15
100
AcDbLine
 10
288.1738228935
 20
401.8904099316
 30
0.0
 11
288.8643203514
 21
402.3739041836
 31
0.0
  0
LINE
  5
341
330
1F
100
AcDbEntity
  8
0
  6
Continuous
 62
     7
370
    15
100
AcDbLine
 10
288.2942987817
 20
401.8060507328
 30
0.0
 11
288.1738228935
 21
401.8904099316
 31
0.0
  0
LINE
  5
342
330
1F
100
AcDbEntity
  8
0
  6
Continuous
 62
     7
370
    15
100
AcDbLine
 10
281.5548239487
 20
401.8904099316
 30
0.0
 11
281.4343406099
 21
401.8060507328
 31
0.0
  0
LINE
  5
343
330
1F
100
AcDbEntity
  8
0
  6
Continuous
 62
     7
370
    15
100
AcDbLine
 10
288.8643203514
 20
402.3739041836
 30
0.0
 11
288.8643203514
 21
402.6440585107
 31
0.0
  0
LINE
  5
344
330
1F
100
AcDbEntity
  8
0
  6
Continuous
 62
     7
370
    15
100
AcDbLine
 10
280.8643190401
 20
402.6440585107
 30
0.0
 11
280.8643190401
 21
402.3739041836
 31
0.0
  0
LINE
  5
345
330
1F
100
AcDbEntity
  8
0
  6
Continuous
 62
     7
370
    15
100
AcDbLine
 10
288.8643203514
 20
402.6440585107
 30
0.0
 11
288.1738228935
 21
403.1275490374
 31
0.0
  0
LINE
  5
346
330
1F
100
AcDbEntity
  8
0
  6
Continuous
 62
     7
370
    15
100
AcDbLine
 10
281.5548239487
 20
403.1275490374
 30
0.0
 11
280.8643190401
 21
402.6440585107
 31
0.0
  0
LINE
  5
347
330
1F
100
AcDbEntity
  8
0
  6
Continuous
 62
     7
370
    15
100
AcDbLine
 10
288.8643203514
 20
403.8811976165
 30
0.0
 11
288.8504026669
 21
403.890942976
 31
0.0
  0
LINE
  5
348
330
1F
100
AcDbEntity
  8
0
  6
Continuous
 62
     7
370
    15
100
AcDbLine
 10
280.8782367247
 20
403.890942976
 30
0.0
 11
280.8643190401
 21
403.8811976165
 31
0.0
  0
LINE
  5
349
330
1F
100
AcDbEntity
  8
0
  6
Continuous
 62
     7
370
    15
100
AcDbLine
 10
280.8643190401
 20
403.6110432894
 30
0.0
 11
281.5548239487
 21
403.1275490374
 31
0.0
  0
LINE
  5
34A
330
1F
100
AcDbEntity
  8
0
  6
Continuous
 62
     7
370
    15
100
AcDbLine
 10
288.1738228935
 20
403.1275490374
 30
0.0
 11
288.8643203514
 21
403.6110432894
 31
0.0
  0
LINE
  5
34B
330
1F
100
AcDbEntity
  8
0
  6
Continuous
 62
     7
370
    15
100
AcDbLine
 10
288.8643203514
 20
403.6110432894
 30
0.0
 11
288.8643203514
 21
403.8811976165
 31
0.0
  0
LINE
  5
34C
330
1F
100
AcDbEntity
  8
0
  6
Continuous
 62
     7
370
    15
100
AcDbLine
 10
280.8643190401
 20
403.8811976165
 30
0.0
 11
280.8643190401
 21
403.6110432894
 31
0.0
  0
LINE
  5
34D
330
1F
100
AcDbEntity
  8
0
  6
Continuous
 62
     7
370
    15
100
AcDbLine
 10
288.8643203514
 20
424.9125773163
 30
0.0
 11
288.3023826617
 21
425.3060508595
 31
0.0
  0
LINE
  5
34E
330
1F
100
AcDbEntity
  8
0
  6
Continuous
 62
     7
370
    15
100
AcDbLine
 10
281.4262567299
 20
425.3060508595
 30
0.0
 11
280.8643190401
 21
424.9125773163
 31
0.0
  0
LINE
  5
34F
330
1F
100
AcDbEntity
  8
0
  6
Continuous
 62
     7
370
    15
100
AcDbLine
 10
288.8643203514
 20
424.6424248517
 30
0.0
 11
288.8643203514
 21
424.9125773163
 31
0.0
  0
LINE
  5
350
330
1F
100
AcDbEntity
  8
0
  6
Continuous
 62
     7
370
    15
100
AcDbLine
 10
280.8643190401
 20
424.9125773163
 30
0.0
 11
280.8643190401
 21
424.6424248517
 31
0.0
  0
LINE
  5
351
330
1F
100
AcDbEntity
  8
0
  6
Continuous
 62
     7
370
    15
100
AcDbLine
 10
280.8643190401
 20
424.6424248517
 30
0.0
 11
281.5548239487
 21
424.1589305998
 31
0.0
  0
LINE
  5
352
330
1F
100
AcDbEntity
  8
0
  6
Continuous
 62
     7
370
    15
100
AcDbLine
 10
288.1738228935
 20
424.1589305998
 30
0.0
 11
288.8643203514
 21
424.6424248517
 31
0.0
  0
LINE
  5
353
330
1F
100
AcDbEntity
  8
0
  6
Continuous
 62
     7
370
    15
100
AcDbLine
 10
288.5565517681
 20
423.8909425289
 30
0.0
 11
288.1738228935
 21
424.1589305998
 31
0.0
  0
LINE
  5
354
330
1F
100
AcDbEntity
  8
0
  6
Continuous
 62
     7
370
    15
100
AcDbLine
 10
281.5548239487
 20
424.1589305998
 30
0.0
 11
281.172095074
 21
423.8909425289
 31
0.0
  0
LINE
  5
355
330
1F
100
AcDbEntity
  8
0
  6
Continuous
 62
     7
370
    15
100
AcDbLine
 10
143.294302954
 20
401.8060507328
 30
0.0
 11
143.1738196152
 21
401.8904099316
 31
0.0
  0
LINE
  5
356
330
1F
100
AcDbEntity
  8
0
  6
Continuous
 62
     7
370
    15
100
AcDbLine
 10
136.5548206704
 20
401.8904099316
 30
0.0
 11
136.4343447822
 21
401.8060507328
 31
0.0
  0
LINE
  5
357
330
1F
100
AcDbEntity
  8
0
  6
Continuous
 62
     7
370
    15
100
AcDbLine
 10
135.8643232125
 20
402.3739041836
 30
0.0
 11
136.5548206704
 21
401.8904099316
 31
0.0
  0
LINE
  5
358
330
1F
100
AcDbEntity
  8
0
  6
Continuous
 62
     7
370
    15
100
AcDbLine
 10
143.1738196152
 20
401.8904099316
 30
0.0
 11
143.8643245238
 21
402.3739041836
 31
0.0
  0
LINE
  5
359
330
1F
100
AcDbEntity
  8
0
  6
Continuous
 62
     7
370
    15
100
AcDbLine
 10
143.8643245238
 20
402.3739041836
 30
0.0
 11
143.8643245238
 21
402.6440585107
 31
0.0
  0
LINE
  5
35A
330
1F
100
AcDbEntity
  8
0
  6
Continuous
 62
     7
370
    15
100
AcDbLine
 10
135.8643232125
 20
402.6440585107
 30
0.0
 11
135.8643232125
 21
402.3739041836
 31
0.0
  0
LINE
  5
35B
330
1F
100
AcDbEntity
  8
0
  6
Continuous
 62
     7
370
    15
100
AcDbLine
 10
143.8643245238
 20
403.8811976165
 30
0.0
 11
143.5780434149
 21
404.0816517622
 31
0.0
  0
LINE
  5
35C
330
1F
100
AcDbEntity
  8
0
  6
Continuous
 62
     7
370
    15
100
AcDbLine
 10
136.1505968707
 20
404.0816517622
 30
0.0
 11
135.8643232125
 21
403.8811976165
 31
0.0
  0
LINE
  5
35D
330
1F
100
AcDbEntity
  8
0
  6
Continuous
 62
     7
370
    15
100
AcDbLine
 10
143.8643245238
 20
403.6110432894
 30
0.0
 11
143.8643245238
 21
403.8811976165
 31
0.0
  0
LINE
  5
35E
330
1F
100
AcDbEntity
  8
0
  6
Continuous
 62
     7
370
    15
100
AcDbLine
 10
135.8643232125
 20
403.8811976165
 30
0.0
 11
135.8643232125
 21
403.6110432894
 31
0.0
  0
LINE
  5
35F
330
1F
100
AcDbEntity
  8
0
  6
Continuous
 62
     7
370
    15
100
AcDbLine
 10
135.8643232125
 20
403.6110432894
 30
0.0
 11
136.5548206704
 21
403.1275490374
 31
0.0
  0
LINE
  5
360
330
1F
100
AcDbEntity
  8
0
  6
Continuous
 62
     7
370
    15
100
AcDbLine
 10
143.1738196152
 20
403.1275490374
 30
0.0
 11
143.8643245238
 21
403.6110432894
 31
0.0
  0
LINE
  5
361
330
1F
100
AcDbEntity
  8
0
  6
Continuous
 62
     7
370
    15
100
AcDbLine
 10
143.8643245238
 20
402.6440585107
 30
0.0
 11
143.1738196152
 21
403.1275490374
 31
0.0
  0
LINE
  5
362
330
1F
100
AcDbEntity
  8
0
  6
Continuous
 62
     7
370
    15
100
AcDbLine
 10
136.5548206704
 20
403.1275490374
 30
0.0
 11
135.8643232125
 21
402.6440585107
 31
0.0
  0
LINE
  5
363
330
1F
100
AcDbEntity
  8
0
  6
Continuous
 62
     7
370
    15
100
AcDbLine
 10
143.2841925162
 20
424.0816513152
 30
0.0
 11
143.1738196152
 21
424.1589305998
 31
0.0
  0
LINE
  5
364
330
1F
100
AcDbEntity
  8
0
  6
Continuous
 62
     7
370
    15
100
AcDbLine
 10
136.5548206704
 20
424.1589305998
 30
0.0
 11
136.4444552201
 21
424.0816513152
 31
0.0
  0
LINE
  5
365
330
1F
100
AcDbEntity
  8
0
  6
Continuous
 62
     7
370
    15
100
AcDbLine
 10
135.8643232125
 20
424.6424248517
 30
0.0
 11
136.5548206704
 21
424.1589305998
 31
0.0
  0
LINE
  5
366
330
1F
100
AcDbEntity
  8
0
  6
Continuous
 62
     7
370
    15
100
AcDbLine
 10
143.1738196152
 20
424.1589305998
 30
0.0
 11
143.8643245238
 21
424.6424248517
 31
0.0
  0
LINE
  5
367
330
1F
100
AcDbEntity
  8
0
  6
Continuous
 62
     7
370
    15
100
AcDbLine
 10
143.8643245238
 20
424.9125773163
 30
0.0
 11
143.302386834
 21
425.3060508595
 31
0.0
  0
LINE
  5
368
330
1F
100
AcDbEntity
  8
0
  6
Continuous
 62
     7
370
    15
100
AcDbLine
 10
136.4262609022
 20
425.3060508595
 30
0.0
 11
135.8643232125
 21
424.9125773163
 31
0.0
  0
LINE
  5
369
330
1F
100
AcDbEntity
  8
0
  6
Continuous
 62
     7
370
    15
100
AcDbLine
 10
143.8643245238
 20
424.6424248517
 30
0.0
 11
143.8643245238
 21
424.9125773163
 31
0.0
  0
LINE
  5
36A
330
1F
100
AcDbEntity
  8
0
  6
Continuous
 62
     7
370
    15
100
AcDbLine
 10
135.8643232125
 20
424.9125773163
 30
0.0
 11
135.8643232125
 21
424.6424248517
 31
0.0
  0
LINE
  5
36B
330
1F
100
AcDbEntity
  8
0
  6
Continuous
 62
     7
370
    15
100
AcDbLine
 10
183.3643226164
 20
405.3264798672
 30
0.0
 11
183.3643226164
 21
404.3060520739
 31
0.0
  0
LINE
  5
36C
330
1F
100
AcDbEntity
  8
0
  6
Continuous
 62
     7
370
    15
100
AcDbLine
 10
241.3643209475
 20
404.3060520739
 30
0.0
 11
241.3643209475
 21
405.3264798672
 31
0.0
  0
ARC
  5
36D
330
1F
100
AcDbEntity
  8
0
  6
Continuous
 62
     7
370
    15
100
AcDbCircle
 10
173.764321782
 20
413.3321019475
 30
0.0
 40
12.50000000000002
100
AcDbArc
 50
320.1746287392
 51
39.8253712608
  0
ARC
  5
36E
330
1F
100
AcDbEntity
  8
0
  6
Continuous
 62
     7
370
    15
100
AcDbCircle
 10
250.964321782
 20
413.3321019475
 30
0.0
 40
12.50000000000004
100
AcDbArc
 50
140.1746287392
 51
219.8253712608
  0
LINE
  5
36F
330
1F
100
AcDbEntity
  8
0
  6
Continuous
 62
     7
370
    15
100
AcDbLine
 10
183.3643226164
 20
422.3060512991
 30
0.0
 11
183.3643226164
 21
421.3377254159
 31
0.0
  0
LINE
  5
370
330
1F
100
AcDbEntity
  8
0
  6
Continuous
 62
     7
370
    15
100
AcDbLine
 10
241.3643209475
 20
421.3377254159
 30
0.0
 11
241.3643209475
 21
422.3060512991
 31
0.0
  0
LINE
  5
371
330
1F
100
AcDbEntity
  8
0
  6
Continuous
 62
     7
370
    15
100
AcDbLine
 10
197.3643221172
 20
434.1060503461
 30
0.0
 11
197.3643221172
 21
430.506050408
 31
0.0
  0
LINE
  5
372
330
1F
100
AcDbEntity
  8
0
  6
Continuous
 62
     7
370
    15
100
AcDbLine
 10
227.3643214467
 20
430.506050408
 30
0.0
 11
227.3643214467
 21
434.1060503461
 31
0.0
  0
LINE
  5
373
330
1F
100
AcDbEntity
  8
0
  6
Continuous
 62
     7
370
    15
100
AcDbLine
 10
197.3643221172
 20
430.506050408
 30
0.0
 11
197.5643217775
 21
430.3060507477
 31
0.0
  0
LINE
  5
374
330
1F
100
AcDbEntity
  8
0
  6
Continuous
 62
     7
370
    15
100
AcDbLine
 10
227.1643217864
 20
430.3060507477
 30
0.0
 11
227.3643214467
 21
430.506050408
 31
0.0
  0
LINE
  5
375
330
1F
100
AcDbEntity
  8
0
  6
Continuous
 62
     7
370
    15
100
AcDbLine
 10
227.3643214467
 20
434.1060503461
 30
0.0
 11
227.1643217864
 21
434.306050472
 31
0.0
  0
LINE
  5
376
330
1F
100
AcDbEntity
  8
0
  6
Continuous
 62
     7
370
    15
100
AcDbLine
 10
197.5643217775
 20
434.306050472
 30
0.0
 11
197.3643221172
 21
434.1060503461
 31
0.0
  0
LINE
  5
377
330
1F
100
AcDbEntity
  8
0
  6
Continuous
 62
     7
370
    15
100
AcDbLine
 10
204.364321402
 20
434.1060503461
 30
0.0
 11
204.364321402
 21
408.3060490043
 31
0.0
  0
LINE
  5
378
330
1F
100
AcDbEntity
  8
0
  6
Continuous
 62
     7
370
    15
100
AcDbLine
 10
204.5643219936
 20
434.306050472
 30
0.0
 11
204.364321402
 21
434.1060503461
 31
0.0
  0
LINE
  5
379
330
1F
100
AcDbEntity
  8
0
  6
Continuous
 62
     7
370
    15
100
AcDbLine
 10
220.3643221619
 20
399.3060493917
 30
0.0
 11
220.3643221619
 21
400.6437713356
 31
0.0
  0
LINE
  5
37A
330
1F
100
AcDbEntity
  8
0
  6
Continuous
 62
     7
370
    15
100
AcDbLine
 10
204.364321402
 20
400.6437713356
 30
0.0
 11
204.364321402
 21
399.3060493917
 31
0.0
  0
ARC
  5
37B
330
1F
100
AcDbEntity
  8
0
  6
Continuous
 62
     7
370
    15
100
AcDbCircle
 10
221.864321782
 20
403.8060505242
 30
0.0
 40
3.500000000000018
100
AcDbArc
 50
115.3769335252
 51
244.6230664748
  0
ARC
  5
37C
330
1F
100
AcDbEntity
  8
0
  6
Continuous
 62
     7
370
    15
100
AcDbCircle
 10
202.864321782
 20
403.8060505242
 30
0.0
 40
3.500000000000018
100
AcDbArc
 50
295.3769335252
 51
64.6230664748
  0
LINE
  5
37D
330
1F
100
AcDbEntity
  8
0
  6
Continuous
 62
     7
370
    15
100
AcDbLine
 10
220.3643221619
 20
406.9683270604
 30
0.0
 11
220.3643221619
 21
408.3060490043
 31
0.0
  0
LINE
  5
37E
330
1F
100
AcDbEntity
  8
0
  6
Continuous
 62
     7
370
    15
100
AcDbLine
 10
204.364321402
 20
408.3060490043
 30
0.0
 11
204.364321402
 21
406.9683270604
 31
0.0
  0
LINE
  5
37F
330
1F
100
AcDbEntity
  8
0
  6
Continuous
 62
     7
370
    15
100
AcDbLine
 10
197.3643221172
 20
442.3060506192
 30
0.0
 11
197.3643221172
 21
440.3060505242
 31
0.0
  0
LINE
  5
380
330
1F
100
AcDbEntity
  8
0
  6
Continuous
 62
     7
370
    15
100
AcDbLine
 10
227.3643214467
 20
440.3060505242
 30
0.0
 11
227.3643214467
 21
442.3060506192
 31
0.0
  0
LINE
  5
381
330
1F
100
AcDbEntity
  8
0
  6
Continuous
 62
     7
370
    15
100
AcDbLine
 10
227.3643214467
 20
442.3060506192
 30
0.0
 11
225.3643220502
 21
444.3060507142
 31
0.0
  0
LINE
  5
382
330
1F
100
AcDbEntity
  8
0
  6
Continuous
 62
     7
370
    15
100
AcDbLine
 10
199.3643215137
 20
444.3060507142
 30
0.0
 11
197.3643221172
 21
442.3060506192
 31
0.0
  0
LINE
  5
383
330
1F
100
AcDbEntity
  8
0
  6
Continuous
 62
     7
370
    15
100
AcDbLine
 10
269.864322825
 20
392.306050107
 30
0.0
 11
271.8643231529
 21
390.3060497791
 31
0.0
  0
LINE
  5
384
330
1F
100
AcDbEntity
  8
0
  6
Continuous
 62
     7
370
    15
100
AcDbLine
 10
297.8643236893
 20
390.3060497791
 30
0.0
 11
299.8643202918
 21
392.306050107
 31
0.0
  0
LINE
  5
385
330
1F
100
AcDbEntity
  8
0
  6
Continuous
 62
     7
370
    15
100
AcDbLine
 10
299.8643202918
 20
392.306050107
 30
0.0
 11
299.8643202918
 21
394.3060504348
 31
0.0
  0
LINE
  5
386
330
1F
100
AcDbEntity
  8
0
  6
Continuous
 62
     7
370
    15
100
AcDbLine
 10
269.864322825
 20
394.3060504348
 30
0.0
 11
269.864322825
 21
392.306050107
 31
0.0
  0
LINE
  5
387
330
1F
100
AcDbEntity
  8
0
  6
Continuous
 62
     7
370
    15
100
AcDbLine
 10
289.864322378
 20
394.3060504348
 30
0.0
 11
289.864322378
 21
401.8060507328
 31
0.0
  0
LINE
  5
388
330
1F
100
AcDbEntity
  8
0
  6
Continuous
 62
     7
370
    15
100
AcDbLine
 10
279.8643244642
 20
401.8060507328
 30
0.0
 11
279.8643244642
 21
394.3060504348
 31
0.0
  0
LINE
  5
389
330
1F
100
AcDbEntity
  8
0
  6
Continuous
 62
     7
370
    15
100
AcDbLine
 10
124.8643232721
 20
392.306050107
 30
0.0
 11
126.8643198746
 21
390.3060497791
 31
0.0
  0
LINE
  5
38A
330
1F
100
AcDbEntity
  8
0
  6
Continuous
 62
     7
370
    15
100
AcDbLine
 10
152.864320411
 20
390.3060497791
 30
0.0
 11
154.8643207389
 21
392.306050107
 31
0.0
  0
LINE
  5
38B
330
1F
100
AcDbEntity
  8
0
  6
Continuous
 62
     7
370
    15
100
AcDbLine
 10
154.8643207389
 20
392.306050107
 30
0.0
 11
154.8643207389
 21
394.3060504348
 31
0.0
  0
LINE
  5
38C
330
1F
100
AcDbEntity
  8
0
  6
Continuous
 62
     7
370
    15
100
AcDbLine
 10
124.8643232721
 20
394.3060504348
 30
0.0
 11
124.8643232721
 21
392.306050107
 31
0.0
  0
LINE
  5
38D
330
1F
100
AcDbEntity
  8
0
  6
Continuous
 62
     7
370
    15
100
AcDbLine
 10
144.8643190997
 20
394.3060504348
 30
0.0
 11
144.8643190997
 21
401.8060507328
 31
0.0
  0
LINE
  5
38E
330
1F
100
AcDbEntity
  8
0
  6
Continuous
 62
     7
370
    15
100
AcDbLine
 10
134.8643211859
 20
401.8060507328
 30
0.0
 11
134.8643211859
 21
394.3060504348
 31
0.0
  0
LINE
  5
38F
330
1F
100
AcDbEntity
  8
0
  6
Continuous
 62
     7
370
    15
100
AcDbLine
 10
134.8643211859
 20
424.0816513152
 30
0.0
 11
134.8643211859
 21
404.0816517622
 31
0.0
  0
LINE
  5
390
330
1F
100
AcDbEntity
  8
0
  6
Continuous
 62
     7
370
    15
100
AcDbLine
 10
144.8643190997
 20
404.0816517622
 30
0.0
 11
144.8643190997
 21
424.0816513152
 31
0.0
  0
LINE
  5
391
330
1F
100
AcDbEntity
  8
0
  6
Continuous
 62
     7
370
    15
100
AcDbLine
 10
279.8643244642
 20
423.8909425289
 30
0.0
 11
279.8643244642
 21
403.890942976
 31
0.0
  0
LINE
  5
392
330
1F
100
AcDbEntity
  8
0
  6
Continuous
 62
     7
370
    15
100
AcDbLine
 10
289.864322378
 20
403.890942976
 30
0.0
 11
289.864322378
 21
423.8909425289
 31
0.0
  0
LINE
  5
393
330
1F
100
AcDbEntity
  8
0
  6
Continuous
 62
     7
370
    15
100
AcDbLine
 10
269.864322825
 20
442.3060506192
 30
0.0
 11
269.864322825
 21
440.3060505242
 31
0.0
  0
LINE
  5
394
330
1F
100
AcDbEntity
  8
0
  6
Continuous
 62
     7
370
    15
100
AcDbLine
 10
299.8643202918
 20
440.3060505242
 30
0.0
 11
299.8643202918
 21
442.3060506192
 31
0.0
  0
LINE
  5
395
330
1F
100
AcDbEntity
  8
0
  6
Continuous
 62
     7
370
    15
100
AcDbLine
 10
299.8643202918
 20
442.3060506192
 30
0.0
 11
297.8643236893
 21
444.3060507142
 31
0.0
  0
LINE
  5
396
330
1F
100
AcDbEntity
  8
0
  6
Continuous
 62
     7
370
    15
100
AcDbLine
 10
271.8643231529
 20
444.3060507142
 30
0.0
 11
269.864322825
 21
442.3060506192
 31
0.0
  0
LINE
  5
397
330
1F
100
AcDbEntity
  8
0
  6
Continuous
 62
     7
370
    15
100
AcDbLine
 10
279.8643244642
 20
434.306050472
 30
0.0
 11
279.8643244642
 21
425.3060508595
 31
0.0
  0
LINE
  5
398
330
1F
100
AcDbEntity
  8
0
  6
Continuous
 62
     7
370
    15
100
AcDbLine
 10
289.864322378
 20
425.3060508595
 30
0.0
 11
289.864322378
 21
434.306050472
 31
0.0
  0
LINE
  5
399
330
1F
100
AcDbEntity
  8
0
  6
Continuous
 62
     7
370
    15
100
AcDbLine
 10
124.8643232721
 20
442.3060506192
 30
0.0
 11
124.8643232721
 21
440.3060505242
 31
0.0
  0
LINE
  5
39A
330
1F
100
AcDbEntity
  8
0
  6
Continuous
 62
     7
370
    15
100
AcDbLine
 10
154.8643207389
 20
440.3060505242
 30
0.0
 11
154.8643207389
 21
442.3060506192
 31
0.0
  0
LINE
  5
39B
330
1F
100
AcDbEntity
  8
0
  6
Continuous
 62
     7
370
    15
100
AcDbLine
 10
154.8643207389
 20
442.3060506192
 30
0.0
 11
152.864320411
 21
444.3060507142
 31
0.0
  0
LINE
  5
39C
330
1F
100
AcDbEntity
  8
0
  6
Continuous
 62
     7
370
    15
100
AcDbLine
 10
126.8643198746
 20
444.3060507142
 30
0.0
 11
124.8643232721
 21
442.3060506192
 31
0.0
  0
LINE
  5
39D
330
1F
100
AcDbEntity
  8
0
  6
Continuous
 62
     7
370
    15
100
AcDbLine
 10
134.8643211859
 20
434.306050472
 30
0.0
 11
134.8643211859
 21
425.3060508595
 31
0.0
  0
LINE
  5
39E
330
1F
100
AcDbEntity
  8
0
  6
Continuous
 62
     7
370
    15
100
AcDbLine
 10
144.8643190997
 20
425.3060508595
 30
0.0
 11
144.8643190997
 21
434.306050472
 31
0.0
  0
LINE
  5
39F
330
1F
100
AcDbEntity
  8
0
  6
Continuous
 62
     7
370
    15
100
AcDbLine
 10
264.8643201428
 20
440.3060505242
 30
0.0
 11
264.8643201428
 21
434.306050472
 31
0.0
  0
LINE
  5
3A0
330
1F
100
AcDbEntity
  8
0
  6
Continuous
 62
     7
370
    15
100
AcDbLine
 10
304.864322974
 20
434.306050472
 30
0.0
 11
304.864322974
 21
440.3060505242
 31
0.0
  0
LINE
  5
3A1
330
1F
100
AcDbEntity
  8
0
  6
Continuous
 62
     7
370
    15
100
AcDbLine
 10
119.8643205899
 20
440.3060505242
 30
0.0
 11
119.8643205899
 21
434.306050472
 31
0.0
  0
LINE
  5
3A2
330
1F
100
AcDbEntity
  8
0
  6
Continuous
 62
     7
370
    15
100
AcDbLine
 10
159.8643234211
 20
434.306050472
 30
0.0
 11
159.8643234211
 21
440.3060505242
 31
0.0
  0
LINE
  5
3A3
330
1F
100
AcDbEntity
  8
0
  6
Continuous
 62
     7
370
    15
100
AcDbLine
 10
225.3643220502
 20
400.3060514183
 30
0.0
 11
220.3643221619
 21
400.3060514183
 31
0.0
  0
LINE
  5
3A4
330
1F
100
AcDbEntity
  8
0
  6
Continuous
 62
     7
370
    15
100
AcDbLine
 10
204.364321402
 20
400.3060514183
 30
0.0
 11
199.3643215137
 21
400.3060514183
 31
0.0
  0
LINE
  5
3A5
330
1F
100
AcDbEntity
  8
0
  6
Continuous
 62
     7
370
    15
100
AcDbLine
 10
197.3643221172
 20
402.3060517461
 30
0.0
 11
206.0265994842
 21
402.3060517461
 31
0.0
  0
LINE
  5
3A6
330
1F
100
AcDbEntity
  8
0
  6
Continuous
 62
     7
370
    15
100
AcDbLine
 10
218.7020440797
 20
402.3060517461
 30
0.0
 11
227.3643214467
 21
402.3060517461
 31
0.0
  0
LINE
  5
3A7
330
1F
100
AcDbEntity
  8
0
  6
Continuous
 62
     7
370
    15
100
AcDbLine
 10
227.2244964006
 20
403.3060500474
 30
0.0
 11
218.4002201284
 21
403.3060500474
 31
0.0
  0
LINE
  5
3A8
330
1F
100
AcDbEntity
  8
0
  6
Continuous
 62
     7
370
    15
100
AcDbLine
 10
206.3284234355
 20
403.3060500474
 30
0.0
 11
197.3643221172
 21
403.3060500474
 31
0.0
  0
LINE
  5
3A9
330
1F
100
AcDbEntity
  8
0
  6
Continuous
 62
     7
370
    15
100
AcDbLine
 10
227.3643214467
 20
403.3060500474
 30
0.0
 11
227.2244964006
 21
403.3060500474
 31
0.0
  0
LINE
  5
3AA
330
1F
100
AcDbEntity
  8
0
  6
Continuous
 62
     7
370
    15
100
AcDbLine
 10
227.0643219563
 20
423.3060496003
 30
0.0
 11
218.3643218341
 21
423.3060496003
 31
0.0
  0
LINE
  5
3AB
330
1F
100
AcDbEntity
  8
0
  6
Continuous
 62
     7
370
    15
100
AcDbLine
 10
204.364321402
 20
423.3060496003
 30
0.0
 11
197.6643216076
 21
423.3060496003
 31
0.0
  0
LINE
  5
3AC
330
1F
100
AcDbEntity
  8
0
  6
Continuous
 62
     7
370
    15
100
AcDbLine
 10
197.3643221172
 20
423.6060509534
 30
0.0
 11
204.364321402
 21
423.6060509534
 31
0.0
  0
LINE
  5
3AD
330
1F
100
AcDbEntity
  8
0
  6
Continuous
 62
     7
370
    15
100
AcDbLine
 10
218.3643218341
 20
423.6060509534
 30
0.0
 11
227.3643214467
 21
423.6060509534
 31
0.0
  0
LINE
  5
3AE
330
1F
100
AcDbEntity
  8
0
  6
Continuous
 62
     7
370
    15
100
AcDbLine
 10
227.3643214467
 20
430.006050326
 30
0.0
 11
218.3643218341
 21
430.006050326
 31
0.0
  0
LINE
  5
3AF
330
1F
100
AcDbEntity
  8
0
  6
Continuous
 62
     7
370
    15
100
AcDbLine
 10
204.364321402
 20
430.006050326
 30
0.0
 11
197.3643221172
 21
430.006050326
 31
0.0
  0
LINE
  5
3B0
330
1F
100
AcDbEntity
  8
0
  6
Continuous
 62
     7
370
    15
100
AcDbLine
 10
222.4424567285
 20
404.1760506184
 30
0.0
 11
241.3143219637
 21
404.1760506184
 31
0.0
  0
LINE
  5
3B1
330
1F
100
AcDbEntity
  8
0
  6
Continuous
 62
     7
370
    15
100
AcDbLine
 10
183.4143216002
 20
404.1760506184
 30
0.0
 11
206.3447094734
 21
404.1760506184
 31
0.0
  0
LINE
  5
3B2
330
1F
100
AcDbEntity
  8
0
  6
Continuous
 62
     7
370
    15
100
AcDbLine
 10
218.3839340905
 20
404.1760506184
 30
0.0
 11
222.4424567285
 21
404.1760506184
 31
0.0
  0
LINE
  5
3B3
330
1F
100
AcDbEntity
  8
0
  6
Continuous
 62
     7
370
    15
100
AcDbLine
 10
222.4424567285
 20
403.6760496051
 30
0.0
 11
241.3143219637
 21
403.6760496051
 31
0.0
  0
LINE
  5
3B4
330
1F
100
AcDbEntity
  8
0
  6
Continuous
 62
     7
370
    15
100
AcDbLine
 10
183.4143216002
 20
403.6760496051
 30
0.0
 11
206.3619068104
 21
403.6760496051
 31
0.0
  0
LINE
  5
3B5
330
1F
100
AcDbEntity
  8
0
  6
Continuous
 62
     7
370
    15
100
AcDbLine
 10
218.3667367535
 20
403.6760496051
 30
0.0
 11
222.4424567285
 21
403.6760496051
 31
0.0
  0
LINE
  5
3B6
330
1F
100
AcDbEntity
  8
0
  6
Continuous
 62
     7
370
    15
100
AcDbLine
 10
221.8197548973
 20
422.9360500426
 30
0.0
 11
218.3643218341
 21
422.9360500426
 31
0.0
  0
LINE
  5
3B7
330
1F
100
AcDbEntity
  8
0
  6
Continuous
 62
     7
370
    15
100
AcDbLine
 10
204.364321402
 20
422.9360500426
 30
0.0
 11
183.4143216002
 21
422.9360500426
 31
0.0
  0
LINE
  5
3B8
330
1F
100
AcDbEntity
  8
0
  6
Continuous
 62
     7
370
    15
100
AcDbLine
 10
241.3143219637
 20
422.9360500426
 30
0.0
 11
221.8197548973
 21
422.9360500426
 31
0.0
  0
LINE
  5
3B9
330
1F
100
AcDbEntity
  8
0
  6
Continuous
 62
     7
370
    15
100
AcDbLine
 10
221.8197548973
 20
422.436050892
 30
0.0
 11
218.3643218341
 21
422.436050892
 31
0.0
  0
LINE
  5
3BA
330
1F
100
AcDbEntity
  8
0
  6
Continuous
 62
     7
370
    15
100
AcDbLine
 10
204.364321402
 20
422.436050892
 30
0.0
 11
183.4143216002
 21
422.436050892
 31
0.0
  0
LINE
  5
3BB
330
1F
100
AcDbEntity
  8
0
  6
Continuous
 62
     7
370
    15
100
AcDbLine
 10
241.3143219637
 20
422.436050892
 30
0.0
 11
221.8197548973
 21
422.436050892
 31
0.0
  0
LINE
  5
3BC
330
1F
100
AcDbEntity
  8
0
  6
Continuous
 62
     7
370
    15
100
AcDbLine
 10
288.8643203514
 20
402.3739041836
 30
0.0
 11
280.8643190401
 21
402.3739041836
 31
0.0
  0
LINE
  5
3BD
330
1F
100
AcDbEntity
  8
0
  6
Continuous
 62
     7
370
    15
100
AcDbLine
 10
288.1738228935
 20
401.8904099316
 30
0.0
 11
281.5548239487
 21
401.8904099316
 31
0.0
  0
LINE
  5
3BE
330
1F
100
AcDbEntity
  8
0
  6
Continuous
 62
     7
370
    15
100
AcDbLine
 10
288.8643203514
 20
402.6440585107
 30
0.0
 11
280.8643190401
 21
402.6440585107
 31
0.0
  0
LINE
  5
3BF
330
1F
100
AcDbEntity
  8
0
  6
Continuous
 62
     7
370
    15
100
AcDbLine
 10
288.1738228935
 20
403.1275490374
 30
0.0
 11
281.5548239487
 21
403.1275490374
 31
0.0
  0
LINE
  5
3C0
330
1F
100
AcDbEntity
  8
0
  6
Continuous
 62
     7
370
    15
100
AcDbLine
 10
288.8643203514
 20
403.8811976165
 30
0.0
 11
280.8643190401
 21
403.8811976165
 31
0.0
  0
LINE
  5
3C1
330
1F
100
AcDbEntity
  8
0
  6
Continuous
 62
     7
370
    15
100
AcDbLine
 10
288.8643203514
 20
403.6110432894
 30
0.0
 11
280.8643190401
 21
403.6110432894
 31
0.0
  0
LINE
  5
3C2
330
1F
100
AcDbEntity
  8
0
  6
Continuous
 62
     7
370
    15
100
AcDbLine
 10
288.8643203514
 20
424.9125773163
 30
0.0
 11
280.8643190401
 21
424.9125773163
 31
0.0
  0
LINE
  5
3C3
330
1F
100
AcDbEntity
  8
0
  6
Continuous
 62
     7
370
    15
100
AcDbLine
 10
288.8643203514
 20
424.6424248517
 30
0.0
 11
280.8643190401
 21
424.6424248517
 31
0.0
  0
LINE
  5
3C4
330
1F
100
AcDbEntity
  8
0
  6
Continuous
 62
     7
370
    15
100
AcDbLine
 10
288.1738228935
 20
424.1589305998
 30
0.0
 11
281.5548239487
 21
424.1589305998
 31
0.0
  0
LINE
  5
3C5
330
1F
100
AcDbEntity
  8
0
  6
Continuous
 62
     7
370
    15
100
AcDbLine
 10
143.1738196152
 20
401.8904099316
 30
0.0
 11
136.5548206704
 21
401.8904099316
 31
0.0
  0
LINE
  5
3C6
330
1F
100
AcDbEntity
  8
0
  6
Continuous
 62
     7
370
    15
100
AcDbLine
 10
143.8643245238
 20
402.3739041836
 30
0.0
 11
135.8643232125
 21
402.3739041836
 31
0.0
  0
LINE
  5
3C7
330
1F
100
AcDbEntity
  8
0
  6
Continuous
 62
     7
370
    15
100
AcDbLine
 10
143.8643245238
 20
402.6440585107
 30
0.0
 11
135.8643232125
 21
402.6440585107
 31
0.0
  0
LINE
  5
3C8
330
1F
100
AcDbEntity
  8
0
  6
Continuous
 62
     7
370
    15
100
AcDbLine
 10
143.8643245238
 20
403.8811976165
 30
0.0
 11
135.8643232125
 21
403.8811976165
 31
0.0
  0
LINE
  5
3C9
330
1F
100
AcDbEntity
  8
0
  6
Continuous
 62
     7
370
    15
100
AcDbLine
 10
143.8643245238
 20
403.6110432894
 30
0.0
 11
135.8643232125
 21
403.6110432894
 31
0.0
  0
LINE
  5
3CA
330
1F
100
AcDbEntity
  8
0
  6
Continuous
 62
     7
370
    15
100
AcDbLine
 10
143.1738196152
 20
403.1275490374
 30
0.0
 11
136.5548206704
 21
403.1275490374
 31
0.0
  0
LINE
  5
3CB
330
1F
100
AcDbEntity
  8
0
  6
Continuous
 62
     7
370
    15
100
AcDbLine
 10
143.1738196152
 20
424.1589305998
 30
0.0
 11
136.5548206704
 21
424.1589305998
 31
0.0
  0
LINE
  5
3CC
330
1F
100
AcDbEntity
  8
0
  6
Continuous
 62
     7
370
    15
100
AcDbLine
 10
143.8643245238
 20
424.6424248517
 30
0.0
 11
135.8643232125
 21
424.6424248517
 31
0.0
  0
LINE
  5
3CD
330
1F
100
AcDbEntity
  8
0
  6
Continuous
 62
     7
370
    15
100
AcDbLine
 10
143.8643245238
 20
424.9125773163
 30
0.0
 11
135.8643232125
 21
424.9125773163
 31
0.0
  0
LINE
  5
3CE
330
1F
100
AcDbEntity
  8
0
  6
Continuous
 62
     7
370
    15
100
AcDbLine
 10
241.3643209475
 20
405.3264798672
 30
0.0
 11
218.7118150505
 21
405.3264798672
 31
0.0
  0
LINE
  5
3CF
330
1F
100
AcDbEntity
  8
0
  6
Continuous
 62
     7
370
    15
100
AcDbLine
 10
206.0168285134
 20
405.3264798672
 30
0.0
 11
183.3643226164
 21
405.3264798672
 31
0.0
  0
LINE
  5
3D0
330
1F
100
AcDbEntity
  8
0
  6
Continuous
 62
     7
370
    15
100
AcDbLine
 10
219.9126525993
 20
404.3060520739
 30
0.0
 11
218.4002201284
 21
404.3060520739
 31
0.0
  0
LINE
  5
3D1
330
1F
100
AcDbEntity
  8
0
  6
Continuous
 62
     7
370
    15
100
AcDbLine
 10
206.3284234355
 20
404.3060520739
 30
0.0
 11
183.3643226164
 21
404.3060520739
 31
0.0
  0
LINE
  5
3D2
330
1F
100
AcDbEntity
  8
0
  6
Continuous
 62
     7
370
    15
100
AcDbLine
 10
241.3643209475
 20
404.3060520739
 30
0.0
 11
219.9126525993
 21
404.3060520739
 31
0.0
  0
LINE
  5
3D3
330
1F
100
AcDbEntity
  8
0
  6
Continuous
 62
     7
370
    15
100
AcDbLine
 10
219.9126525993
 20
421.3377254159
 30
0.0
 11
241.3643209475
 21
421.3377254159
 31
0.0
  0
LINE
  5
3D4
330
1F
100
AcDbEntity
  8
0
  6
Continuous
 62
     7
370
    15
100
AcDbLine
 10
183.3643226164
 20
421.3377254159
 30
0.0
 11
204.364321402
 21
421.3377254159
 31
0.0
  0
LINE
  5
3D5
330
1F
100
AcDbEntity
  8
0
  6
Continuous
 62
     7
370
    15
100
AcDbLine
 10
218.3643218341
 20
421.3377254159
 30
0.0
 11
219.9126525993
 21
421.3377254159
 31
0.0
  0
LINE
  5
3D6
330
1F
100
AcDbEntity
  8
0
  6
Continuous
 62
     7
370
    15
100
AcDbLine
 10
219.9126525993
 20
422.3060512991
 30
0.0
 11
218.3643218341
 21
422.3060512991
 31
0.0
  0
LINE
  5
3D7
330
1F
100
AcDbEntity
  8
0
  6
Continuous
 62
     7
370
    15
100
AcDbLine
 10
204.364321402
 20
422.3060512991
 30
0.0
 11
183.3643226164
 21
422.3060512991
 31
0.0
  0
LINE
  5
3D8
330
1F
100
AcDbEntity
  8
0
  6
Continuous
 62
     7
370
    15
100
AcDbLine
 10
241.3643209475
 20
422.3060512991
 30
0.0
 11
219.9126525993
 21
422.3060512991
 31
0.0
  0
LINE
  5
3D9
330
1F
100
AcDbEntity
  8
0
  6
Continuous
 62
     7
370
    15
100
AcDbLine
 10
218.3643218341
 20
430.506050408
 30
0.0
 11
227.3643214467
 21
430.506050408
 31
0.0
  0
LINE
  5
3DA
330
1F
100
AcDbEntity
  8
0
  6
Continuous
 62
     7
370
    15
100
AcDbLine
 10
197.3643221172
 20
430.506050408
 30
0.0
 11
204.364321402
 21
430.506050408
 31
0.0
  0
LINE
  5
3DB
330
1F
100
AcDbEntity
  8
0
  6
Continuous
 62
     7
370
    15
100
AcDbLine
 10
204.364321402
 20
434.1060503461
 30
0.0
 11
197.3643221172
 21
434.1060503461
 31
0.0
  0
LINE
  5
3DC
330
1F
100
AcDbEntity
  8
0
  6
Continuous
 62
     7
370
    15
100
AcDbLine
 10
227.3643214467
 20
434.1060503461
 30
0.0
 11
218.4063198256
 21
434.1060503461
 31
0.0
  0
LINE
  5
3DD
330
1F
100
AcDbEntity
  8
0
  6
Continuous
 62
     7
370
    15
100
AcDbLine
 10
204.364321402
 20
430.3060507477
 30
0.0
 11
197.5643217775
 21
430.3060507477
 31
0.0
  0
LINE
  5
3DE
330
1F
100
AcDbEntity
  8
0
  6
Continuous
 62
     7
370
    15
100
AcDbLine
 10
227.1643217864
 20
430.3060507477
 30
0.0
 11
218.3643218341
 21
430.3060507477
 31
0.0
  0
LINE
  5
3DF
330
1F
100
AcDbEntity
  8
0
  6
Continuous
 62
     7
370
    15
100
AcDbLine
 10
218.3643218341
 20
434.1060503461
 30
0.0
 11
204.364321402
 21
434.1060503461
 31
0.0
  0
LINE
  5
3E0
330
1F
100
AcDbEntity
  8
0
  6
Continuous
 62
     7
370
    15
100
AcDbLine
 10
218.3643218341
 20
434.1060503461
 30
0.0
 11
218.3643218341
 21
408.3060490043
 31
0.0
  0
LINE
  5
3E1
330
1F
100
AcDbEntity
  8
0
  6
Continuous
 62
     7
370
    15
100
AcDbLine
 10
218.3643218341
 20
408.3060490043
 30
0.0
 11
204.364321402
 21
408.3060490043
 31
0.0
  0
LINE
  5
3E2
330
1F
100
AcDbEntity
  8
0
  6
Continuous
 62
     7
370
    15
100
AcDbLine
 10
220.3643221619
 20
400.6437713356
 30
0.0
 11
204.364321402
 21
400.6437713356
 31
0.0
  0
LINE
  5
3E3
330
1F
100
AcDbEntity
  8
0
  6
Continuous
 62
     7
370
    15
100
AcDbLine
 10
220.3643221619
 20
399.3060493917
 30
0.0
 11
204.364321402
 21
399.3060493917
 31
0.0
  0
LINE
  5
3E4
330
1F
100
AcDbEntity
  8
0
  6
Continuous
 62
     7
370
    15
100
AcDbLine
 10
220.3643221619
 20
406.9683270604
 30
0.0
 11
204.364321402
 21
406.9683270604
 31
0.0
  0
LINE
  5
3E5
330
1F
100
AcDbEntity
  8
0
  6
Continuous
 62
     7
370
    15
100
AcDbLine
 10
220.3643221619
 20
408.3060490043
 30
0.0
 11
204.364321402
 21
408.3060490043
 31
0.0
  0
LINE
  5
3E6
330
1F
100
AcDbEntity
  8
0
  6
Continuous
 62
     7
370
    15
100
AcDbLine
 10
227.3643214467
 20
442.3060506192
 30
0.0
 11
197.3643221172
 21
442.3060506192
 31
0.0
  0
LINE
  5
3E7
330
1F
100
AcDbEntity
  8
0
  6
Continuous
 62
     7
370
    15
100
AcDbLine
 10
199.3643215137
 20
444.3060507142
 30
0.0
 11
225.3643220502
 21
444.3060507142
 31
0.0
  0
LINE
  5
3E8
330
1F
100
AcDbEntity
  8
0
  6
Continuous
 62
     7
370
    15
100
AcDbLine
 10
269.864322825
 20
392.306050107
 30
0.0
 11
299.8643202918
 21
392.306050107
 31
0.0
  0
LINE
  5
3E9
330
1F
100
AcDbEntity
  8
0
  6
Continuous
 62
     7
370
    15
100
AcDbLine
 10
297.8643236893
 20
390.3060497791
 30
0.0
 11
271.8643231529
 21
390.3060497791
 31
0.0
  0
LINE
  5
3EA
330
1F
100
AcDbEntity
  8
0
  6
Continuous
 62
     7
370
    15
100
AcDbLine
 10
269.864322825
 20
394.3060504348
 30
0.0
 11
299.8643202918
 21
394.3060504348
 31
0.0
  0
LINE
  5
3EB
330
1F
100
AcDbEntity
  8
0
  6
Continuous
 62
     7
370
    15
100
AcDbLine
 10
279.8643244642
 20
401.8060507328
 30
0.0
 11
289.864322378
 21
401.8060507328
 31
0.0
  0
LINE
  5
3EC
330
1F
100
AcDbEntity
  8
0
  6
Continuous
 62
     7
370
    15
100
AcDbLine
 10
129.5862255829
 20
392.306050107
 30
0.0
 11
154.8643207389
 21
392.306050107
 31
0.0
  0
LINE
  5
3ED
330
1F
100
AcDbEntity
  8
0
  6
Continuous
 62
     7
370
    15
100
AcDbLine
 10
124.8643232721
 20
392.306050107
 30
0.0
 11
129.5862255829
 21
392.306050107
 31
0.0
  0
LINE
  5
3EE
330
1F
100
AcDbEntity
  8
0
  6
Continuous
 62
     7
370
    15
100
AcDbLine
 10
130.9566332239
 20
390.3060497791
 30
0.0
 11
126.8643198746
 21
390.3060497791
 31
0.0
  0
LINE
  5
3EF
330
1F
100
AcDbEntity
  8
0
  6
Continuous
 62
     7
370
    15
100
AcDbLine
 10
152.864320411
 20
390.3060497791
 30
0.0
 11
130.9566332239
 21
390.3060497791
 31
0.0
  0
LINE
  5
3F0
330
1F
100
AcDbEntity
  8
0
  6
Continuous
 62
     7
370
    15
100
AcDbLine
 10
129.5862255829
 20
394.3060504348
 30
0.0
 11
154.8643207389
 21
394.3060504348
 31
0.0
  0
LINE
  5
3F1
330
1F
100
AcDbEntity
  8
0
  6
Continuous
 62
     7
370
    15
100
AcDbLine
 10
124.8643232721
 20
394.3060504348
 30
0.0
 11
129.5862255829
 21
394.3060504348
 31
0.0
  0
LINE
  5
3F2
330
1F
100
AcDbEntity
  8
0
  6
Continuous
 62
     7
370
    15
100
AcDbLine
 10
136.4382861393
 20
401.8060507328
 30
0.0
 11
144.8643190997
 21
401.8060507328
 31
0.0
  0
LINE
  5
3F3
330
1F
100
AcDbEntity
  8
0
  6
Continuous
 62
     7
370
    15
100
AcDbLine
 10
134.8643211859
 20
401.8060507328
 30
0.0
 11
136.4382861393
 21
401.8060507328
 31
0.0
  0
LINE
  5
3F4
330
1F
100
AcDbEntity
  8
0
  6
Continuous
 62
     7
370
    15
100
AcDbLine
 10
137.8925426143
 20
424.0816513152
 30
0.0
 11
134.8643211859
 21
424.0816513152
 31
0.0
  0
LINE
  5
3F5
330
1F
100
AcDbEntity
  8
0
  6
Continuous
 62
     7
370
    15
100
AcDbLine
 10
144.8643190997
 20
424.0816513152
 30
0.0
 11
137.8925426143
 21
424.0816513152
 31
0.0
  0
LINE
  5
3F6
330
1F
100
AcDbEntity
  8
0
  6
Continuous
 62
     7
370
    15
100
AcDbLine
 10
137.8925426143
 20
404.0816517622
 30
0.0
 11
134.8643211859
 21
404.0816517622
 31
0.0
  0
LINE
  5
3F7
330
1F
100
AcDbEntity
  8
0
  6
Continuous
 62
     7
370
    15
100
AcDbLine
 10
144.8643190997
 20
404.0816517622
 30
0.0
 11
137.8925426143
 21
404.0816517622
 31
0.0
  0
LINE
  5
3F8
330
1F
100
AcDbEntity
  8
0
  6
Continuous
 62
     7
370
    15
100
AcDbLine
 10
280.4959399837
 20
423.8909425289
 30
0.0
 11
279.8643244642
 21
423.8909425289
 31
0.0
  0
LINE
  5
3F9
330
1F
100
AcDbEntity
  8
0
  6
Continuous
 62
     7
370
    15
100
AcDbLine
 10
289.864322378
 20
423.8909425289
 30
0.0
 11
280.4959399837
 21
423.8909425289
 31
0.0
  0
LINE
  5
3FA
330
1F
100
AcDbEntity
  8
0
  6
Continuous
 62
     7
370
    15
100
AcDbLine
 10
280.4959399837
 20
403.890942976
 30
0.0
 11
279.8643244642
 21
403.890942976
 31
0.0
  0
LINE
  5
3FB
330
1F
100
AcDbEntity
  8
0
  6
Continuous
 62
     7
370
    15
100
AcDbLine
 10
289.864322378
 20
403.890942976
 30
0.0
 11
280.4959399837
 21
403.890942976
 31
0.0
  0
LINE
  5
3FC
330
1F
100
AcDbEntity
  8
0
  6
Continuous
 62
     7
370
    15
100
AcDbLine
 10
299.8643202918
 20
442.3060506192
 30
0.0
 11
269.864322825
 21
442.3060506192
 31
0.0
  0
LINE
  5
3FD
330
1F
100
AcDbEntity
  8
0
  6
Continuous
 62
     7
370
    15
100
AcDbLine
 10
271.8643231529
 20
444.3060507142
 30
0.0
 11
297.8643236893
 21
444.3060507142
 31
0.0
  0
LINE
  5
3FE
330
1F
100
AcDbEntity
  8
0
  6
Continuous
 62
     7
370
    15
100
AcDbLine
 10
289.864322378
 20
425.3060508595
 30
0.0
 11
279.8643244642
 21
425.3060508595
 31
0.0
  0
LINE
  5
3FF
330
1F
100
AcDbEntity
  8
0
  6
Continuous
 62
     7
370
    15
100
AcDbLine
 10
154.8643207389
 20
442.3060506192
 30
0.0
 11
124.8643232721
 21
442.3060506192
 31
0.0
  0
LINE
  5
400
330
1F
100
AcDbEntity
  8
0
  6
Continuous
 62
     7
370
    15
100
AcDbLine
 10
126.8643198746
 20
444.3060507142
 30
0.0
 11
152.864320411
 21
444.3060507142
 31
0.0
  0
LINE
  5
401
330
1F
100
AcDbEntity
  8
0
  6
Continuous
 62
     7
370
    15
100
AcDbLine
 10
144.8643190997
 20
425.3060508595
 30
0.0
 11
134.8643211859
 21
425.3060508595
 31
0.0
  0
LINE
  5
402
330
1F
100
AcDbEntity
  8
0
  6
Continuous
 62
     7
370
    15
100
AcDbLine
 10
138.8643218416
 20
437.883400878
 30
0.0
 11
138.8643218416
 21
436.7287003511
 31
0.0
  0
LINE
  5
403
330
1F
100
AcDbEntity
  8
0
  6
Continuous
 62
     7
370
    15
100
AcDbLine
 10
138.8643218416
 20
436.7287003511
 30
0.0
 11
139.8643238681
 21
436.151350204
 31
0.0
  0
CIRCLE
  5
404
330
1F
100
AcDbEntity
  8
0
  6
Continuous
 62
     7
370
    15
100
AcDbCircle
 10
139.864321782
 20
437.3060505242
 30
0.0
 40
1.5
  0
LINE
  5
405
330
1F
100
AcDbEntity
  8
0
  6
Continuous
 62
     7
370
    15
100
AcDbLine
 10
140.8643184441
 20
436.7287003511
 30
0.0
 11
140.8643184441
 21
437.883400878
 31
0.0
  0
LINE
  5
406
330
1F
100
AcDbEntity
  8
0
  6
Continuous
 62
     7
370
    15
100
AcDbLine
 10
139.8643238681
 20
436.151350204
 30
0.0
 11
140.8643184441
 21
436.7287003511
 31
0.0
  0
LINE
  5
407
330
1F
100
AcDbEntity
  8
0
  6
Continuous
 62
     7
370
    15
100
AcDbLine
 10
139.8643238681
 20
438.4607510251
 30
0.0
 11
138.8643218416
 21
437.883400878
 31
0.0
  0
LINE
  5
408
330
1F
100
AcDbEntity
  8
0
  6
Continuous
 62
     7
370
    15
100
AcDbLine
 10
140.8643184441
 20
437.883400878
 30
0.0
 11
139.8643238681
 21
438.4607510251
 31
0.0
  0
LINE
  5
409
330
1F
100
AcDbEntity
  8
0
  6
Continuous
 62
     7
370
    15
100
AcDbLine
 10
285.8643217223
 20
436.7287003511
 30
0.0
 11
285.8643217223
 21
437.883400878
 31
0.0
  0
LINE
  5
40A
330
1F
100
AcDbEntity
  8
0
  6
Continuous
 62
     7
370
    15
100
AcDbLine
 10
285.8643217223
 20
437.883400878
 30
0.0
 11
284.8643196958
 21
438.4607510251
 31
0.0
  0
LINE
  5
40B
330
1F
100
AcDbEntity
  8
0
  6
Continuous
 62
     7
370
    15
100
AcDbLine
 10
284.8643196958
 20
438.4607510251
 30
0.0
 11
283.8643251198
 21
437.883400878
 31
0.0
  0
LINE
  5
40C
330
1F
100
AcDbEntity
  8
0
  6
Continuous
 62
     7
370
    15
100
AcDbLine
 10
283.8643251198
 20
437.883400878
 30
0.0
 11
283.8643251198
 21
436.7287003511
 31
0.0
  0
CIRCLE
  5
40D
330
1F
100
AcDbEntity
  8
0
  6
Continuous
 62
     7
370
    15
100
AcDbCircle
 10
284.864321782
 20
437.3060505242
 30
0.0
 40
1.5
  0
LINE
  5
40E
330
1F
100
AcDbEntity
  8
0
  6
Continuous
 62
     7
370
    15
100
AcDbLine
 10
283.8643251198
 20
436.7287003511
 30
0.0
 11
284.8643196958
 21
436.151350204
 31
0.0
  0
LINE
  5
40F
330
1F
100
AcDbEntity
  8
0
  6
Continuous
 62
     7
370
    15
100
AcDbLine
 10
284.8643196958
 20
436.151350204
 30
0.0
 11
285.8643217223
 21
436.7287003511
 31
0.0
  0
LINE
  5
410
330
1F
100
AcDbEntity
  8
0
  6
Continuous
 62
     7
370
    15
100
AcDbLine
 10
304.864322974
 20
440.3060505242
 30
0.0
 11
264.8643201428
 21
440.3060505242
 31
0.0
  0
SPLINE
  5
411
330
1F
100
AcDbEntity
  8
0
  6
Continuous
 62
     7
370
    15
100
AcDbSpline
210
0.0
220
0.0
230
1.0
 70
    11
 71
     3
 72
    58
 73
    54
 74
     0
 42
0.000000001
 43
0.00000001
 40
0.0
 40
0.0
 40
0.0
 40
0.0
 40
0.0312499999999993
 40
0.0312499999999993
 40
0.0624999999999986
 40
0.0624999999999986
 40
0.0937499999999979
 40
0.0937499999999979
 40
0.1249999999999972
 40
0.1249999999999972
 40
0.1874999999999956
 40
0.1874999999999956
 40
0.2499999999999939
 40
0.2499999999999939
 40
0.2812499999999951
 40
0.2812499999999951
 40
0.3124999999999963
 40
0.3124999999999963
 40
0.3437499999999975
 40
0.3437499999999975
 40
0.3749999999999987
 40
0.3749999999999987
 40
0.4062499999999999
 40
0.4062499999999999
 40
0.4375000000000011
 40
0.4375000000000011
 40
0.4687500000000023
 40
0.4687500000000023
 40
0.5000000000000034
 40
0.5000000000000034
 40
0.562500000000006
 40
0.562500000000006
 40
0.6250000000000087
 40
0.6250000000000087
 40
0.6562500000000083
 40
0.6562500000000083
 40
0.6875000000000081
 40
0.6875000000000081
 40
0.7187500000000079
 40
0.7187500000000079
 40
0.7500000000000075
 40
0.7500000000000075
 40
0.7812500000000073
 40
0.7812500000000073
 40
0.8125000000000071
 40
0.8125000000000071
 40
0.8437500000000069
 40
0.8437500000000069
 40
0.8750000000000066
 40
0.8750000000000066
 40
0.9375000000000033
 40
0.9375000000000033
 40
1.0
 40
1.0
 40
1.0
 40
1.0
 10
283.2143217819538
 20
437.3060505242015
 30
0.0
 10
283.2143217819538
 20
437.4151071164853
 30
0.0
 10
283.2250274681175
 20
437.5223319980583
 30
0.0
 10
283.266965787793
 20
437.7332710190615
 30
0.0
 10
283.2987107018369
 20
437.8380814232576
 30
0.0
 10
283.3815455039991
 20
438.0378766246313
 30
0.0
 10
283.4322287653683
 20
438.1326296214169
 30
0.0
 10
283.5519641807394
 20
438.311953570544
 30
0.0
 10
283.6216267018928
 20
438.3968226216444
 30
0.0
 10
283.8498741072231
 20
438.625025595044
 30
0.0
 10
284.0338832003939
 20
438.7479437860595
 30
0.0
 10
284.4309240188459
 20
438.9125531837909
 30
0.0
 10
284.6481157531554
 20
438.9559336829153
 30
0.0
 10
284.9710844963429
 20
438.9561085819348
 30
0.0
 10
285.0804408583767
 20
438.9453902758606
 30
0.0
 10
285.2920919231846
 20
438.9032840646818
 30
0.0
 10
285.3949674284212
 20
438.8721298469663
 30
0.0
 10
285.5947885346766
 20
438.7894950194466
 30
0.0
 10
285.6913617702267
 20
438.7378527485929
 30
0.0
 10
285.8701241525029
 20
438.6184583660603
 30
0.0
 10
285.9534599800925
 20
438.5502937985711
 30
0.0
 10
286.1075652981764
 20
438.3963298002722
 30
0.0
 10
286.1758675548621
 20
438.3129742420103
 30
0.0
 10
286.2953911445128
 20
438.1343549172022
 30
0.0
 10
286.3470796896769
 20
438.0379187809727
 30
0.0
 10
286.4299416029332
 20
437.8380624924325
 30
0.0
 10
286.4611763413475
 20
437.7352161588112
 30
0.0
 10
286.5034496776942
 20
437.523736920635
 30
0.0
 10
286.5142825700175
 20
437.4143496231405
 30
0.0
 10
286.5143998795634
 20
437.0912495472383
 30
0.0
 10
286.4712163806454
 20
436.8740925241269
 30
0.0
 10
286.3069315458033
 20
436.4768490804144
 30
0.0
 10
286.1841451160867
 20
436.2927164374264
 30
0.0
 10
285.956189035811
 20
436.0643195544903
 30
0.0
 10
285.8714072773408
 20
435.9945971983281
 30
0.0
 10
285.6921299903908
 20
435.8746649748097
 30
0.0
 10
285.5974322592014
 20
435.823913963339
 30
0.0
 10
285.3978421451805
 20
435.7409512369619
 30
0.0
 10
285.2929662445249
 20
435.7090751773366
 30
0.0
 10
285.0820387318807
 20
435.6669453831254
 30
0.0
 10
284.9748709114173
 20
435.656157575195
 30
0.0
 10
284.7569916612415
 20
435.6559450432111
 30
0.0
 10
284.6494811170096
 20
435.666567655247
 30
0.0
 10
284.4385317490153
 20
435.7083135506168
 30
0.0
 10
284.3338074952465
 20
435.7399195616543
 30
0.0
 10
284.1337935299434
 20
435.8226287792941
 30
0.0
 10
284.0389884679752
 20
435.8732428489829
 30
0.0
 10
283.8596381257992
 20
435.9927631739296
 30
0.0
 10
283.7746794748494
 20
436.0623615067768
 30
0.0
 10
283.5461960096895
 20
436.2904839993142
 30
0.0
 10
283.4231601380465
 20
436.4743417042949
 30
0.0
 10
283.2581985191029
 20
436.8712465344439
 30
0.0
 10
283.2143217819538
 20
437.0879373396342
 30
0.0
 10
283.2143217819538
 20
437.3060505242016
 30
0.0
  0
LINE
  5
412
330
1F
100
AcDbEntity
  8
0
  6
Continuous
 62
     7
370
    15
100
AcDbLine
 10
304.864322974
 20
434.306050472
 30
0.0
 11
264.8643201428
 21
434.306050472
 31
0.0
  0
SPLINE
  5
413
330
1F
100
AcDbEntity
  8
0
  6
Continuous
 62
     7
370
    15
100
AcDbSpline
210
0.0
220
0.0
230
1.0
 70
    11
 71
     3
 72
    58
 73
    54
 74
     0
 42
0.000000001
 43
0.00000001
 40
0.0
 40
0.0
 40
0.0
 40
0.0
 40
0.0312499999999992
 40
0.0312499999999992
 40
0.0624999999999984
 40
0.0624999999999984
 40
0.0937499999999977
 40
0.0937499999999977
 40
0.1249999999999969
 40
0.1249999999999969
 40
0.1874999999999953
 40
0.1874999999999953
 40
0.2499999999999938
 40
0.2499999999999938
 40
0.281249999999995
 40
0.281249999999995
 40
0.3124999999999962
 40
0.3124999999999962
 40
0.3437499999999974
 40
0.3437499999999974
 40
0.3749999999999987
 40
0.3749999999999987
 40
0.4062499999999999
 40
0.4062499999999999
 40
0.4375000000000011
 40
0.4375000000000011
 40
0.4687500000000023
 40
0.4687500000000023
 40
0.5000000000000036
 40
0.5000000000000036
 40
0.5625000000000059
 40
0.5625000000000059
 40
0.6250000000000082
 40
0.6250000000000082
 40
0.656250000000008
 40
0.656250000000008
 40
0.6875000000000078
 40
0.6875000000000078
 40
0.7187500000000075
 40
0.7187500000000075
 40
0.7500000000000073
 40
0.7500000000000073
 40
0.7812500000000071
 40
0.7812500000000071
 40
0.8125000000000069
 40
0.8125000000000069
 40
0.8437500000000067
 40
0.8437500000000067
 40
0.8750000000000064
 40
0.8750000000000064
 40
0.9375000000000032
 40
0.9375000000000032
 40
1.0
 40
1.0
 40
1.0
 40
1.0
 10
138.2143217819538
 20
437.3060505242016
 30
0.0
 10
138.2143217819538
 20
437.4151071164853
 30
0.0
 10
138.2250274681175
 20
437.5223319980583
 30
0.0
 10
138.266965787793
 20
437.7332710190615
 30
0.0
 10
138.2987107018369
 20
437.8380814232576
 30
0.0
 10
138.3815455039991
 20
438.0378766246313
 30
0.0
 10
138.4322287653683
 20
438.1326296214169
 30
0.0
 10
138.5519641807395
 20
438.311953570544
 30
0.0
 10
138.6216267018928
 20
438.3968226216444
 30
0.0
 10
138.8498741072231
 20
438.625025595044
 30
0.0
 10
139.0338832003939
 20
438.7479437860595
 30
0.0
 10
139.4309240188458
 20
438.9125531837909
 30
0.0
 10
139.6481157531554
 20
438.9559336829153
 30
0.0
 10
139.9710844963429
 20
438.9561085819348
 30
0.0
 10
140.0804408583767
 20
438.9453902758606
 30
0.0
 10
140.2920919231845
 20
438.9032840646818
 30
0.0
 10
140.3949674284212
 20
438.8721298469663
 30
0.0
 10
140.5947885346766
 20
438.7894950194466
 30
0.0
 10
140.6913617702267
 20
438.7378527485929
 30
0.0
 10
140.8701241525029
 20
438.6184583660603
 30
0.0
 10
140.9534599800924
 20
438.5502937985711
 30
0.0
 10
141.1075652981764
 20
438.3963298002722
 30
0.0
 10
141.1758675548621
 20
438.3129742420103
 30
0.0
 10
141.2953911445128
 20
438.1343549172022
 30
0.0
 10
141.3470796896769
 20
438.0379187809727
 30
0.0
 10
141.4299416029332
 20
437.8380624924325
 30
0.0
 10
141.4611763413475
 20
437.7352161588112
 30
0.0
 10
141.5034496776942
 20
437.523736920635
 30
0.0
 10
141.5142825700175
 20
437.4143496231405
 30
0.0
 10
141.5143998795634
 20
437.0912495472383
 30
0.0
 10
141.4712163806455
 20
436.8740925241269
 30
0.0
 10
141.3069315458034
 20
436.4768490804144
 30
0.0
 10
141.1841451160867
 20
436.2927164374263
 30
0.0
 10
140.9561890358109
 20
436.0643195544903
 30
0.0
 10
140.8714072773408
 20
435.9945971983281
 30
0.0
 10
140.6921299903908
 20
435.8746649748097
 30
0.0
 10
140.5974322592014
 20
435.823913963339
 30
0.0
 10
140.3978421451806
 20
435.7409512369619
 30
0.0
 10
140.2929662445249
 20
435.7090751773366
 30
0.0
 10
140.0820387318808
 20
435.6669453831254
 30
0.0
 10
139.9748709114173
 20
435.656157575195
 30
0.0
 10
139.7569916612415
 20
435.6559450432111
 30
0.0
 10
139.6494811170096
 20
435.666567655247
 30
0.0
 10
139.4385317490154
 20
435.7083135506168
 30
0.0
 10
139.3338074952465
 20
435.7399195616543
 30
0.0
 10
139.1337935299434
 20
435.8226287792941
 30
0.0
 10
139.0389884679752
 20
435.8732428489829
 30
0.0
 10
138.8596381257992
 20
435.9927631739296
 30
0.0
 10
138.7746794748494
 20
436.0623615067768
 30
0.0
 10
138.5461960096895
 20
436.2904839993142
 30
0.0
 10
138.4231601380465
 20
436.4743417042949
 30
0.0
 10
138.2581985191029
 20
436.8712465344439
 30
0.0
 10
138.2143217819538
 20
437.0879373396342
 30
0.0
 10
138.2143217819538
 20
437.3060505242015
 30
0.0
  0
LINE
  5
414
330
1F
100
AcDbEntity
  8
0
  6
Continuous
 62
     7
370
    15
100
AcDbLine
 10
159.8643234211
 20
440.3060505242
 30
0.0
 11
119.8643205899
 21
440.3060505242
 31
0.0
  0
LINE
  5
415
330
1F
100
AcDbEntity
  8
0
  6
Continuous
 62
     7
370
    15
100
AcDbLine
 10
159.8643234211
 20
434.306050472
 30
0.0
 11
119.8643205899
 21
434.306050472
 31
0.0
  0
LINE
  5
416
330
1F
100
AcDbEntity
  8
0
  6
Continuous
 62
     7
370
    15
100
AcDbLine
 10
264.8714652496
 20
440.3060505242
 30
0.0
 11
159.8571783143
 21
440.3060505242
 31
0.0
  0
LINE
  5
417
330
1F
100
AcDbEntity
  8
0
  6
Continuous
 62
     7
370
    15
100
AcDbLine
 10
264.8714652496
 20
434.306050472
 30
0.0
 11
159.8571783143
 21
434.306050472
 31
0.0
  0
LINE
  5
418
330
1F
100
AcDbEntity
  8
0
  6
Continuous
 62
     7
370
    15
100
AcDbLine
 10
451.3848157544
 20
375.0918552017
 30
0.0
 11
452.3359423676
 21
375.6409289081
 31
0.0
  0
LINE
  5
419
330
1F
100
AcDbEntity
  8
0
  6
Continuous
 62
     7
370
    15
100
AcDbLine
 10
437.3371618273
 20
401.622392492
 30
0.0
 11
436.3860352141
 21
401.0733187855
 31
0.0
  0
LINE
  5
41A
330
1F
100
AcDbEntity
  8
0
  6
Continuous
 62
     7
370
    15
100
AcDbLine
 10
455.4431535782
 20
382.5085999983
 30
0.0
 11
455.4431548953
 21
382.7535227761
 31
0.0
  0
LINE
  5
41B
330
1F
100
AcDbEntity
  8
0
  6
Continuous
 62
     7
370
    15
100
AcDbLine
 10
445.0503744822
 20
400.7562965196
 30
0.0
 11
444.8382759686
 21
400.8787812373
 31
0.0
  0
LINE
  5
41C
330
1F
100
AcDbEntity
  8
0
  6
Continuous
 62
     7
370
    15
100
AcDbLine
 10
459.7841373877
 20
363.8330444955
 30
0.0
 11
460.1376901777
 21
364.0371461767
 31
0.0
  0
LINE
  5
41D
330
1F
100
AcDbEntity
  8
0
  6
Continuous
 62
     7
370
    15
100
AcDbLine
 10
431.190043972
 20
414.1813727644
 30
0.0
 11
430.836491182
 21
413.9772710831
 31
0.0
  0
LINE
  5
41E
330
1F
100
AcDbEntity
  8
0
  6
Continuous
 62
     7
370
    15
100
AcDbLine
 10
460.254612121
 20
364.0469110846
 30
0.0
 11
460.9393219193
 21
364.4421856376
 31
0.0
  0
LINE
  5
41F
330
1F
100
AcDbEntity
  8
0
  6
Continuous
 62
     7
370
    15
100
AcDbLine
 10
431.9416790145
 20
414.6730181735
 30
0.0
 11
431.2569692162
 21
414.2777436205
 31
0.0
  0
LINE
  5
420
330
1F
100
AcDbEntity
  8
0
  6
Continuous
 62
     7
370
    15
100
AcDbLine
 10
472.2609822221
 20
370.9780410108
 30
0.0
 11
472.9825336344
 21
371.3945837747
 31
0.0
  0
LINE
  5
421
330
1F
100
AcDbEntity
  8
0
  6
Continuous
 62
     7
370
    15
100
AcDbLine
 10
443.9848907296
 20
421.6254163106
 30
0.0
 11
443.2633393173
 21
421.2088735467
 31
0.0
  0
LINE
  5
422
330
1F
100
AcDbEntity
  8
0
  6
Continuous
 62
     7
370
    15
100
AcDbLine
 10
421.0070540448
 20
387.1213056928
 30
0.0
 11
421.0070535509
 21
385.4884896767
 31
0.0
  0
LINE
  5
423
330
1F
100
AcDbEntity
  8
0
  6
Continuous
 62
     7
370
    15
100
AcDbLine
 10
430.1979478745
 20
369.5676685471
 30
0.0
 11
431.6119316544
 21
368.7511305374
 31
0.0
  0
LINE
  5
424
330
1F
100
AcDbEntity
  8
0
  6
Continuous
 62
     7
370
    15
100
AcDbLine
 10
439.1130457957
 20
368.007513199
 30
0.0
 11
440.5272594253
 21
368.8239213496
 31
0.0
  0
LINE
  5
425
330
1F
100
AcDbEntity
  8
0
  6
Continuous
 62
     7
370
    15
100
AcDbLine
 10
425.5284788849
 20
394.8053849335
 30
0.0
 11
424.1142652554
 21
393.9889767829
 31
0.0
  0
LINE
  5
426
330
1F
100
AcDbEntity
  8
0
  6
Continuous
 62
     7
370
    15
100
AcDbLine
 10
450.2103105147
 20
333.5040636647
 30
0.0
 11
459.6549622361
 21
338.9563450484
 31
0.0
  0
LINE
  5
427
330
1F
100
AcDbEntity
  8
0
  6
Continuous
 62
     7
370
    15
100
AcDbLine
 10
451.6556122195
 20
352.8131268178
 30
0.0
 11
447.3998460449
 21
350.3563252997
 31
0.0
  0
LINE
  5
428
330
1F
100
AcDbEntity
  8
0
  6
Continuous
 62
     7
370
    15
100
AcDbLine
 10
452.6015244774
 20
353.3591903409
 30
0.0
 11
451.6556122195
 21
352.8131268178
 31
0.0
  0
LINE
  5
429
330
1F
100
AcDbEntity
  8
0
  6
Continuous
 62
     7
370
    15
100
AcDbLine
 10
459.6549622361
 20
338.9563450484
 30
0.0
 11
460.600874494
 21
339.5024085715
 31
0.0
  0
LINE
  5
42A
330
1F
100
AcDbEntity
  8
0
  6
Continuous
 62
     7
370
    15
100
AcDbLine
 10
458.0195729762
 20
356.4869631628
 30
0.0
 11
457.0736607184
 21
355.9408996397
 31
0.0
  0
LINE
  5
42B
330
1F
100
AcDbEntity
  8
0
  6
Continuous
 62
     7
370
    15
100
AcDbLine
 10
465.073010735
 20
342.0841178702
 30
0.0
 11
466.0189229929
 21
342.6301813934
 31
0.0
  0
LINE
  5
42C
330
1F
100
AcDbEntity
  8
0
  6
Continuous
 62
     7
370
    15
100
AcDbLine
 10
421.0070540448
 20
338.1288580747
 30
0.0
 11
421.0070535509
 21
336.4960420586
 31
0.0
  0
LINE
  5
42D
330
1F
100
AcDbEntity
  8
0
  6
Continuous
 62
     7
370
    15
100
AcDbLine
 10
430.1979478745
 20
320.575220929
 30
0.0
 11
431.6119316544
 21
319.758680638
 31
0.0
  0
LINE
  5
42E
330
1F
100
AcDbEntity
  8
0
  6
Continuous
 62
     7
370
    15
100
AcDbLine
 10
439.1130457957
 20
319.0150648205
 30
0.0
 11
440.5272594253
 21
319.8314729711
 31
0.0
  0
LINE
  5
42F
330
1F
100
AcDbEntity
  8
0
  6
Continuous
 62
     7
370
    15
100
AcDbLine
 10
425.5284788849
 20
345.8129380759
 30
0.0
 11
424.1142652554
 21
344.9965299253
 31
0.0
  0
LINE
  5
430
330
1F
100
AcDbEntity
  8
0
  6
Continuous
 62
     7
370
    15
100
AcDbLine
 10
510.7348461549
 20
279.4706235984
 30
0.0
 11
509.3206323607
 21
278.6542153528
 31
0.0
  0
LINE
  5
431
330
1F
100
AcDbEntity
  8
0
  6
Continuous
 62
     7
370
    15
100
AcDbLine
 10
524.3194155352
 20
252.6727472064
 30
0.0
 11
525.7336293294
 21
253.489155452
 31
0.0
  0
LINE
  5
432
330
1F
100
AcDbEntity
  8
0
  6
Continuous
 62
     7
370
    15
100
AcDbLine
 10
528.8408372472
 20
260.3568314849
 30
0.0
 11
528.8408398814
 21
261.9896464555
 31
0.0
  0
LINE
  5
433
330
1F
100
AcDbEntity
  8
0
  6
Continuous
 62
     7
370
    15
100
AcDbLine
 10
519.6499451153
 20
277.9104647987
 30
0.0
 11
518.2359578604
 21
278.7270076662
 31
0.0
  0
LINE
  5
434
330
1F
100
AcDbEntity
  8
0
  6
Continuous
 62
     7
370
    15
100
AcDbLine
 10
514.3202285083
 20
269.9937269848
 30
0.0
 11
509.0169274387
 21
266.9321964438
 31
0.0
  0
LINE
  5
435
330
1F
100
AcDbEntity
  8
0
  6
Continuous
 62
     7
370
    15
100
AcDbLine
 10
514.016518318
 20
258.2717080753
 30
0.0
 11
519.3198193876
 21
261.3332386163
 31
0.0
  0
LINE
  5
436
330
1F
100
AcDbEntity
  8
0
  6
Continuous
 62
     7
370
    15
100
AcDbLine
 10
408.2043605648
 20
338.6602130438
 30
0.0
 11
406.7901467706
 21
337.8438047981
 31
0.0
  0
LINE
  5
437
330
1F
100
AcDbEntity
  8
0
  6
Continuous
 62
     7
370
    15
100
AcDbLine
 10
416.4314701751
 20
337.497351176
 30
0.0
 11
415.7054775386
 21
337.9165940701
 31
0.0
  0
LINE
  5
438
330
1F
100
AcDbEntity
  8
0
  6
Continuous
 62
     7
370
    15
100
AcDbLine
 10
408.0559694137
 20
327.0278548663
 30
0.0
 11
406.4864418486
 21
326.1217858891
 31
0.0
  0
LINE
  5
439
330
1F
100
AcDbEntity
  8
0
  6
Continuous
 62
     7
370
    15
100
AcDbLine
 10
404.8773489294
 20
325.1928763193
 30
0.0
 11
401.6824439565
 21
323.3484969372
 31
0.0
  0
LINE
  5
43A
330
1F
100
AcDbEntity
  8
0
  6
Continuous
 62
     7
370
    15
100
AcDbLine
 10
500.021022433
 20
250.1922802763
 30
0.0
 11
512.5422768748
 21
257.4206466055
 31
0.0
  0
LINE
  5
43B
330
1F
100
AcDbEntity
  8
0
  6
Continuous
 62
     7
370
    15
100
AcDbLine
 10
507.5426859955
 20
266.081134974
 30
0.0
 11
494.5628777932
 21
258.5880511936
 31
0.0
  0
LINE
  5
43C
330
1F
100
AcDbEntity
  8
0
  6
Continuous
 62
     7
370
    15
100
AcDbLine
 10
472.2722961814
 20
252.1927491235
 30
0.0
 11
472.272296346
 21
250.5599327272
 31
0.0
  0
LINE
  5
43D
330
1F
100
AcDbEntity
  8
0
  6
Continuous
 62
     7
370
    15
100
AcDbLine
 10
481.4631911121
 20
234.6391083003
 30
0.0
 11
482.877172934
 21
233.822571421
 31
0.0
  0
LINE
  5
43E
330
1F
100
AcDbEntity
  8
0
  6
Continuous
 62
     7
370
    15
100
AcDbLine
 10
490.3782899079
 20
233.0789524474
 30
0.0
 11
491.7925035374
 21
233.895360598
 31
0.0
  0
LINE
  5
43F
330
1F
100
AcDbEntity
  8
0
  6
Continuous
 62
     7
370
    15
100
AcDbLine
 10
476.7937203629
 20
259.8768287444
 30
0.0
 11
475.3795067334
 21
259.0604205938
 31
0.0
  0
LINE
  5
440
330
1F
100
AcDbEntity
  8
0
  6
Continuous
 62
     7
370
    15
100
AcDbLine
 10
369.7418132254
 20
311.3823370481
 30
0.0
 11
369.7418107559
 21
309.7495221726
 31
0.0
  0
LINE
  5
441
330
1F
100
AcDbEntity
  8
0
  6
Continuous
 62
     7
370
    15
100
AcDbLine
 10
378.932705522
 20
293.8286977456
 30
0.0
 11
380.3466926122
 21
293.012157825
 31
0.0
  0
LINE
  5
442
330
1F
100
AcDbEntity
  8
0
  6
Continuous
 62
     7
370
    15
100
AcDbLine
 10
387.8478043178
 20
292.2685418927
 30
0.0
 11
389.2620179473
 21
293.0849500433
 31
0.0
  0
LINE
  5
443
330
1F
100
AcDbEntity
  8
0
  6
Continuous
 62
     7
370
    15
100
AcDbLine
 10
374.2632347728
 20
319.0664181897
 30
0.0
 11
372.8490211433
 21
318.2500100391
 31
0.0
  0
LINE
  5
444
330
1F
100
AcDbEntity
  8
0
  6
Continuous
 62
     7
370
    15
100
AcDbLine
 10
427.2713228522
 20
401.5848542348
 30
0.0
 11
423.0286821282
 21
399.1356298781
 31
0.0
  0
LINE
  5
445
330
1F
100
AcDbEntity
  8
0
  6
Continuous
 62
     7
370
    15
100
AcDbLine
 10
494.2922963429
 20
227.5237678515
 30
0.0
 11
498.5349370669
 21
229.9729922082
 31
0.0
  0
LINE
  5
446
330
1F
100
AcDbEntity
  8
0
  6
Continuous
 62
     7
370
    15
100
AcDbLine
 10
391.7618160211
 20
286.7133542555
 30
0.0
 11
396.0044567451
 21
289.1625786122
 31
0.0
  0
LINE
  5
447
330
1F
100
AcDbEntity
  8
0
  6
Continuous
 62
     7
370
    15
100
AcDbLine
 10
376.0060826913
 20
323.8045320853
 30
0.0
 11
371.7634419673
 21
321.3553077285
 31
0.0
  0
ARC
  5
448
330
1F
100
AcDbEntity
  8
0
  6
Continuous
 62
     7
370
    15
100
AcDbCircle
 10
427.3938098095
 20
378.5949152019
 30
0.0
 40
23.59926445635744
100
AcDbArc
 50
5.3656962557
 51
43.3713274095
  0
ARC
  5
449
330
1F
100
AcDbEntity
  8
0
  6
Continuous
 62
     7
370
    15
100
AcDbCircle
 10
430.612277758
 20
382.1415680162
 30
0.0
 40
18.82772518381317
100
AcDbArc
 50
42.2515904197
 51
56.2110049394
  0
LWPOLYLINE
  5
44A
330
1F
100
AcDbEntity
  8
0
  6
Continuous
 62
     7
370
    15
100
AcDbPolyline
 90
        9
 70
   128
 43
0.0
 10
449.074032796
 20
397.4135980398
 10
447.5401071348
 20
398.9144810468
 10
445.9428125344
 20
400.1743407063
 10
444.3195880321
 20
401.1636551079
 10
442.7084806664
 20
401.8592251721
 10
441.1472537256
 20
402.244756368
 10
439.6725005933
 20
402.3112060192
 10
438.3187882709
 20
402.0570222227
 10
437.3371618273
 20
401.622392492
  0
LWPOLYLINE
  5
44B
330
1F
100
AcDbEntity
  8
0
  6
Continuous
 62
     7
370
    15
100
AcDbPolyline
 90
       14
 70
   128
 43
0.0
 10
452.3359423676
 20
375.6409289081
 10
453.089483238
 20
376.1737175589
 10
454.0097906268
 20
377.1873766125
 10
454.7150852094
 20
378.4692798023
 10
455.188835543
 20
379.9893808291
 10
455.4199372501
 20
381.712048683
 10
455.402972485
 20
383.5969095006
 10
455.1383403258
 20
385.599775102
 10
454.632243603
 20
387.673709159
 10
453.8965433619
 20
389.7700998139
 10
452.9484849076
 20
391.8398003485
 10
451.8102895072
 20
393.8343078631
 10
450.5086354574
 20
395.7068719827
 10
449.074032796
 20
397.4135980398
  0
ARC
  5
44C
330
1F
100
AcDbEntity
  8
0
  6
Continuous
 62
     7
370
    15
100
AcDbCircle
 10
432.7757385975
 20
381.7044455134
 30
0.0
 40
22.69167963642121
100
AcDbArc
 50
2.649831713
 51
43.6256179976
  0
ARC
  5
44D
330
1F
100
AcDbEntity
  8
0
  6
Continuous
 62
     7
370
    15
100
AcDbCircle
 10
435.9356689989
 20
385.3796927227
 30
0.0
 40
17.87506084956345
100
AcDbArc
 50
42.0862108271
 51
59.3420411965
  0
LWPOLYLINE
  5
44E
330
1F
100
AcDbEntity
  8
0
  6
Continuous
 62
     7
370
    15
100
AcDbPolyline
 90
       30
 70
   128
 43
0.0
 10
473.2859158696
 20
371.6319879311
 10
474.6961151765
 20
372.6875986407
 10
475.9862170385
 20
374.0791036657
 10
477.0649774799
 20
375.7435349612
 10
477.9193033189
 20
377.6606850393
 10
478.5388224793
 20
379.8072880854
 10
478.9160157001
 20
382.1572815702
 10
479.0463047797
 20
384.682141622
 10
478.9281065772
 20
387.351216875
 10
478.5628580368
 20
390.1321185889
 10
477.9549911629
 20
392.9910757832
 10
477.1118856052
 20
395.8933975937
 10
476.0437751456
 20
398.8038466511
 10
474.7636252082
 20
401.6870930662
 10
473.2869748092
 20
404.5081463575
 10
471.6317482131
 20
407.2327501141
 10
469.8180389298
 20
409.827841295
 10
467.8678614438
 20
412.2619186498
 10
465.8048891131
 20
414.5054312911
 10
463.6541634217
 20
416.5311473012
 10
461.4417913789
 20
418.3144805127
 10
459.194628224
 20
419.8337771022
 10
456.9399513232
 20
421.0706011846
 10
454.7051293335
 20
422.009937968
 10
452.5172903786
 20
422.6403792287
 10
450.4029910889
 20
422.954283951
 10
448.3878969195
 20
422.9478290344
 10
446.4964675305
 20
422.6211057484
 10
444.7516643933
 20
421.9780695137
 10
444.6840305552
 20
421.9452773308
  0
LWPOLYLINE
  5
44F
330
1F
100
AcDbEntity
  8
0
  6
Continuous
 62
     7
370
    15
100
AcDbPolyline
 90
       30
 70
   128
 43
0.0
 10
473.981396822
 20
372.05676316
 10
475.0496692836
 20
372.8917010822
 10
476.3397711456
 20
374.2832061073
 10
477.418531587
 20
375.9476374028
 10
478.272857426
 20
377.8647874809
 10
478.8923765864
 20
380.011390527
 10
479.2695698072
 20
382.3613840118
 10
479.3998588868
 20
384.8862440636
 10
479.2816606843
 20
387.5553193165
 10
478.9164121439
 20
390.3362210305
 10
478.3085452699
 20
393.1951782248
 10
477.4654397123
 20
396.0975000353
 10
476.3973292527
 20
399.0079490927
 10
475.1171793153
 20
401.8911955078
 10
473.6405289163
 20
404.7122487991
 10
471.9853023201
 20
407.4368525557
 10
470.1715930369
 20
410.0319437365
 10
468.2214155509
 20
412.4660210914
 10
466.1584432201
 20
414.7095337327
 10
464.0077175288
 20
416.7352497428
 10
461.795345486
 20
418.5185829543
 10
459.5481823311
 20
420.0378795438
 10
457.2935054303
 20
421.2747036261
 10
455.0586834406
 20
422.2140404096
 10
452.8708444857
 20
422.8444816703
 10
450.756545196
 20
423.1583863925
 10
448.7414510266
 20
423.151931476
 10
446.8500216376
 20
422.8252081899
 10
445.1052185004
 20
422.1821719553
 10
445.0578375401
 20
422.1592669299
  0
ARC
  5
450
330
1F
100
AcDbEntity
  8
0
  6
Continuous
 62
     7
370
    15
100
AcDbCircle
 10
455.7359374353
 20
382.2082519554
 30
0.0
 40
19.86055230250207
100
AcDbArc
 50
244.1840285834
 51
259.14676094
  0
LWPOLYLINE
  5
451
330
1F
100
AcDbEntity
  8
0
  6
Continuous
 62
     7
370
    15
100
AcDbPolyline
 90
       42
 70
   128
 43
0.0
 10
424.8448280261
 20
400.1840709744
 10
424.9061121781
 20
402.5886649497
 10
425.2113752164
 20
404.9928947426
 10
425.7606118727
 20
407.20184763
 10
426.5471550426
 20
409.1887014601
 10
427.5614584647
 20
410.929339538
 10
428.7912086738
 20
412.4026297258
 10
430.2214777831
 20
413.5906951822
 10
431.8349065593
 20
414.4791128599
 10
433.6119072545
 20
415.0571005991
 10
435.5309105606
 20
415.3176361627
 10
437.5686230997
 20
415.2575580219
 10
439.700308623
 20
414.8775977023
 10
441.9000929168
 20
414.1823680253
 10
444.1412722482
 20
413.1803128039
 10
446.3966422259
 20
411.8835839165
 10
448.6388257553
 20
410.3079310699
 10
450.8406051097
 20
408.4724735972
 10
452.9752547418
 20
406.3994961617
 10
455.0168625717
 20
404.1141659427
 10
456.9406462523
 20
401.6442162173
 10
458.7232524784
 20
399.0196275647
 10
460.3430441117
 20
396.2722674334
 10
461.7803596472
 20
393.4354787554
 10
463.0177502897
 20
390.5436997368
 10
464.0401959561
 20
387.6320288934
 10
464.8352883507
 20
384.7358151784
 10
465.393371894
 20
381.890211604
 10
465.7076754313
 20
379.1297585196
 10
465.7743820387
 20
376.4879630831
 10
465.5926830235
 20
373.9969000223
 10
465.1647831928
 20
371.6868009861
 10
464.4958771455
 20
369.5857092913
 10
463.5940847355
 20
367.719127823
 10
462.4703522896
 20
366.1097201628
 10
461.1383195817
 20
364.7770162777
 10
459.6141565135
 20
363.7371934912
 10
457.9163642346
 20
363.0028779836
 10
456.0655512367
 20
362.5829820326
 10
454.0841850828
 20
362.4825979045
 10
451.9963151598
 20
362.7029510606
 10
451.9963151598
 20
362.7029510606
  0
LWPOLYLINE
  5
452
330
1F
100
AcDbEntity
  8
0
  6
Continuous
 62
     7
370
    15
100
AcDbPolyline
 90
       30
 70
   128
 43
0.0
 10
431.190043972
 20
414.1813727644
 10
432.1884593493
 20
414.6832145412
 10
433.9654600446
 20
415.2612022804
 10
435.8844633506
 20
415.521737844
 10
437.9221758897
 20
415.4616597031
 10
440.053861413
 20
415.0816993835
 10
442.2536457068
 20
414.3864697065
 10
444.4948250382
 20
413.3844144852
 10
446.7501950159
 20
412.0876855977
 10
448.9923785453
 20
410.5120327512
 10
451.1941578997
 20
408.6765752784
 10
453.3288075318
 20
406.6035978429
 10
455.3704153617
 20
404.3182676239
 10
457.2941990423
 20
401.8483178986
 10
459.0768052684
 20
399.223729246
 10
460.6965969017
 20
396.4763691147
 10
462.1339124372
 20
393.6395804366
 10
463.3713030797
 20
390.747801418
 10
464.3937487461
 20
387.8361305746
 10
465.1888411407
 20
384.9399168597
 10
465.746924684
 20
382.0943132852
 10
466.0612282213
 20
379.3338602008
 10
466.1279348287
 20
376.6920647643
 10
465.9462358135
 20
374.2010017036
 10
465.5183359828
 20
371.8909026673
 10
464.8494299355
 20
369.7898109726
 10
463.9476375255
 20
367.9232295042
 10
462.8239050796
 20
366.313821844
 10
461.4918723717
 20
364.981117959
 10
460.1376901777
 20
364.0371461767
  0
LWPOLYLINE
  5
453
330
1F
100
AcDbEntity
  8
0
  6
Continuous
 62
     7
370
    15
100
AcDbPolyline
 90
        3
 70
   128
 43
0.0
 10
513.6774021407
 20
261.4185387956
 10
513.7460277468
 20
260.4085592599
 10
513.5765816107
 20
259.5944860863
  0
ARC
  5
454
330
1F
100
AcDbEntity
  8
0
  6
Continuous
 62
     7
370
    15
100
AcDbCircle
 10
508.3040768632
 20
260.725550789
 30
0.0
 40
5.417827693323343
100
AcDbArc
 50
7.3487683158
 51
72.3983126653
  0
ARC
  5
455
330
1F
100
AcDbEntity
  8
0
  6
Continuous
 62
     7
370
    15
100
AcDbCircle
 10
511.1158377898
 20
260.7847000624
 30
0.0
 40
2.851398649990755
100
AcDbArc
 50
329.0330733268
 51
15.1273623427
  0
LWPOLYLINE
  5
456
330
1F
100
AcDbEntity
  8
0
  6
Continuous
 62
     7
370
    15
100
AcDbPolyline
 90
        8
 70
   128
 43
0.0
 10
509.694696178
 20
266.0145631502
 10
509.8709595668
 20
266.0215911574
 10
510.6749317756
 20
265.8506597854
 10
511.5180215281
 20
265.3704700771
 10
512.3253180696
 20
264.6236830554
 10
513.0250927321
 20
263.676662149
 10
513.5551631091
 20
262.6135543468
 10
513.8684300974
 20
261.5288168877
  0
LWPOLYLINE
  5
457
330
1F
100
AcDbEntity
  8
0
  6
Continuous
 62
     7
370
    15
100
AcDbPolyline
 90
       31
 70
   128
 43
0.0
 10
430.2581073457
 20
413.6155620035
 10
431.6382072173
 20
414.4865485103
 10
433.3599981752
 20
415.18175034
 10
435.232256675
 20
415.5611106883
 10
437.2322570043
 20
415.6200209188
 10
439.3357219198
 20
415.3577734241
 10
441.517117346
 20
414.7775496764
 10
443.7499646899
 20
413.8863920242
 10
446.0071600707
 20
412.6951167447
 10
448.2613040855
 20
411.2181905944
 10
450.4850345393
 20
409.4735265608
 10
452.6513588452
 20
407.482316307
 10
454.7339795099
 20
405.268732766
 10
456.707617644
 20
402.8596277918
 10
458.5483153982
 20
400.2842663112
 10
460.2337296746
 20
397.5738951688
 10
461.7434008123
 20
394.7614176741
 10
463.0590041519
 20
391.8809746101
 10
464.1645686719
 20
388.9675320829
 10
465.0466771865
 20
386.0564556811
 10
465.694620445
 20
383.1830747453
 10
466.1005327917
 20
380.3822816168
 10
466.2594869967
 20
377.6880632012
 10
466.1695548416
 20
375.1331253056
 10
465.8318268762
 20
372.7484827509
 10
465.2504045155
 20
370.5630837024
 10
464.4323420884
 20
368.6034537676
 10
463.3875717632
 20
366.8933803973
 10
462.1287771071
 20
365.4536208558
 10
460.6712350356
 20
364.3016558161
 10
459.1816679446
 20
363.5130605152
  0
LWPOLYLINE
  5
458
330
1F
100
AcDbEntity
  8
0
  6
Continuous
 62
     7
370
    15
100
AcDbPolyline
 90
       31
 70
   128
 43
0.0
 10
460.9393219193
 20
364.4421856376
 10
461.355944834
 20
364.6969303691
 10
462.8134869055
 20
365.8488954088
 10
464.0722815616
 20
367.2886549503
 10
465.1170518868
 20
368.9987283206
 10
465.9351143139
 20
370.9583582553
 10
466.5165366745
 20
373.1437573039
 10
466.85426464
 20
375.5283998585
 10
466.9441967951
 20
378.0833377541
 10
466.7852425901
 20
380.7775561697
 10
466.3793302434
 20
383.5783492982
 10
465.7313869849
 20
386.451730234
 10
464.8492784702
 20
389.3628066358
 10
463.7437139502
 20
392.2762491631
 10
462.4281106107
 20
395.1566922271
 10
460.918439473
 20
397.9691697217
 10
459.2330251966
 20
400.6795408641
 10
457.3923274424
 20
403.2549023447
 10
455.4186893083
 20
405.6640073189
 10
453.3360686435
 20
407.87759086
 10
451.1697443377
 20
409.8688011137
 10
448.9460138839
 20
411.6134651473
 10
446.6918698691
 20
413.0903912977
 10
444.4346744883
 20
414.2816665772
 10
442.2018271443
 20
415.1728242294
 10
440.0204317181
 20
415.7530479771
 10
437.9169668026
 20
416.0152954717
 10
435.9169664734
 20
415.9563852412
 10
434.0447079736
 20
415.577024893
 10
432.3229170157
 20
414.8818230633
 10
431.9416790145
 20
414.6730181735
  0
LWPOLYLINE
  5
459
330
1F
100
AcDbEntity
  8
0
  6
Continuous
 62
     7
370
    15
100
AcDbPolyline
 90
       29
 70
   128
 43
0.0
 10
452.4246848621
 20
422.0381869713
 10
454.6351629308
 20
421.3013828409
 10
456.8835984349
 20
420.2585817481
 10
459.1426985734
 20
418.9224489705
 10
461.3850406474
 20
417.3092046519
 10
463.5834064363
 20
415.4384307721
 10
465.7111097409
 20
413.3328333896
 10
467.7423237628
 20
411.0179745619
 10
469.6523912785
 20
408.521947277
 10
471.4181282285
 20
405.8750602695
 10
473.0181003062
 20
403.1094410854
 10
474.432885717
 20
400.2586532133
 10
475.6453122543
 20
397.3573037082
 10
476.6406601313
 20
394.4406158298
 10
477.4068490075
 20
391.5439864714
 10
477.9345776002
 20
388.7025892107
 10
478.2174409056
 20
385.9508990319
 10
478.2520052727
 20
383.3223295919
 10
478.0378492328
 20
380.848786832
 10
477.5775753541
 20
378.5602910297
 10
476.8767680937
 20
376.4846239392
 10
475.9439358469
 20
374.6469820155
 10
474.7904016279
 20
373.069671458
 10
473.4301674099
 20
371.771836713
 10
471.879744221
 20
370.7692361209
 10
470.1579532631
 20
370.0740373331
 10
468.2856947633
 20
369.6946769848
 10
466.285694434
 20
369.6357606706
 10
465.4497854507
 20
369.7028219824
  0
ARC
  5
45A
330
1F
100
AcDbEntity
  8
0
  6
Continuous
 62
     7
370
    15
100
AcDbCircle
 10
448.8327518361
 20
411.7105632214
 30
0.0
 40
10.93443163504867
100
AcDbArc
 50
70.8223971768
 51
157.1976532873
  0
LWPOLYLINE
  5
45B
330
1F
100
AcDbEntity
  8
0
  6
Continuous
 62
     7
370
    15
100
AcDbPolyline
 90
       31
 70
   128
 43
0.0
 10
443.9848907296
 20
421.6254163106
 10
444.3661287307
 20
421.8342212004
 10
446.0879196886
 20
422.5294230301
 10
447.9601781884
 20
422.9087833784
 10
449.9601785177
 20
422.9676936089
 10
452.0636434332
 20
422.7054461142
 10
454.2450388594
 20
422.1252223665
 10
456.4778862034
 20
421.2340647144
 10
458.7350815842
 20
420.0427894348
 10
460.989225599
 20
418.5658632845
 10
463.2129560528
 20
416.8211992509
 10
465.3792803586
 20
414.8299889971
 10
467.4619010233
 20
412.6164054561
 10
469.4355391574
 20
410.2073004819
 10
471.2762369117
 20
407.6319390013
 10
472.9616511881
 20
404.9215678589
 10
474.4713223258
 20
402.1090903642
 10
475.7869256653
 20
399.2286473002
 10
476.8924901853
 20
396.315204773
 10
477.7745987
 20
393.4041283712
 10
478.4225419585
 20
390.5307474354
 10
478.8284543052
 20
387.7299543069
 10
478.9874085102
 20
385.0357358913
 10
478.8974763551
 20
382.4807979957
 10
478.5597483896
 20
380.096155441
 10
477.9783260289
 20
377.9107563925
 10
477.1602636019
 20
375.9511264577
 10
476.1154932767
 20
374.2410530874
 10
474.8566986206
 20
372.8012935459
 10
473.399156549
 20
371.6493285062
 10
472.9825336344
 20
371.3945837747
  0
LWPOLYLINE
  5
45C
330
1F
100
AcDbEntity
  8
0
  6
Continuous
 62
     7
370
    15
100
AcDbPolyline
 90
       33
 70
   128
 43
0.0
 10
421.0070540448
 20
387.1213056928
 10
421.0098982986
 20
387.4033072729
 10
421.1716651471
 20
389.1757625903
 10
421.5781826963
 20
390.7565411065
 10
422.2199237826
 20
392.108593316
 10
423.0818459324
 20
393.2002316002
 10
424.1437463174
 20
394.0058622056
 10
425.3807352478
 20
394.5066122904
 10
426.7638186552
 20
394.6907297921
 10
428.2605777108
 20
394.5539089698
 10
429.8359302667
 20
394.0993557801
 10
431.4529512077
 20
393.3377279903
 10
433.0737389204
 20
392.2868661575
 10
434.6603033612
 20
390.9714087146
 10
436.1754572112
 20
389.4221923469
 10
437.5836861529
 20
387.6755244941
 10
438.8519829477
 20
385.7723489934
 10
439.9506189209
 20
383.7572714281
 10
440.8538436652
 20
381.6775224927
 10
441.5404862917
 20
379.5818565185
 10
441.9944526312
 20
377.5193823085
 10
442.2051019215
 20
375.5384544183
 10
442.1674963959
 20
373.6855009252
 10
441.8825178456
 20
372.0039492862
 10
441.3568458873
 20
370.5332168209
 10
440.602801889
 20
369.3077757078
 10
439.638059868
 20
368.3563495282
 10
438.4852329258
 20
367.7012394574
 10
437.1713418019
 20
367.3577975941
 10
435.7271830011
 20
367.3340799398
 10
434.1866065343
 20
367.6306367288
 10
432.5857225371
 20
368.2405172015
 10
431.6119316544
 20
368.7511305374
  0
LWPOLYLINE
  5
45D
330
1F
100
AcDbEntity
  8
0
  6
Continuous
 62
     7
370
    15
100
AcDbPolyline
 90
       39
 70
   128
 43
0.0
 10
421.0095191416
 20
385.7328905139
 10
421.0998187645
 20
383.9307023159
 10
421.4383330321
 20
382.0262513475
 10
422.0158271748
 20
380.0714942285
 10
422.8165488079
 20
378.1197440132
 10
423.8186566442
 20
376.2242424615
 10
424.9948158184
 20
374.4366939222
 10
426.3129436883
 20
372.8058583568
 10
427.7370848763
 20
371.3762188053
 10
429.2283928297
 20
370.1867759543
 10
430.7461884721
 20
369.2699715876
 10
432.2490703041
 20
368.6508135162
 10
433.6960435594
 20
368.3461902694
 10
435.0476386613
 20
368.3644170612
 10
436.2669878184
 20
368.7049884315
 10
437.3208295942
 20
369.3586219011
 10
438.1804191794
 20
370.3074807771
 10
438.8223077797
 20
371.5256884898
 10
439.2289873308
 20
372.9800119284
 10
439.3893646505
 20
374.6307831668
 10
439.2990650275
 20
376.4329744066
 10
438.9605507599
 20
378.337425375
 10
438.3830566173
 20
380.2921855359
 10
437.5823349842
 20
382.2439357512
 10
436.5802271478
 20
384.1394342611
 10
435.4040679737
 20
385.9269828004
 10
434.0859401037
 20
387.5578183657
 10
432.6617989157
 20
388.9874579173
 10
431.1704909624
 20
390.1769038101
 10
429.6526953199
 20
391.0937051349
 10
428.149813488
 20
391.7128662482
 10
426.7028402326
 20
392.0174864531
 10
425.3512451308
 20
391.9992596614
 10
424.1318959736
 20
391.658688291
 10
423.0780541978
 20
391.0050548215
 10
422.2184646126
 20
390.0561929036
 10
421.5765760123
 20
388.8379882327
 10
421.1698964612
 20
387.3836617523
 10
421.0095191416
 20
385.7328905139
  0
LWPOLYLINE
  5
45E
330
1F
100
AcDbEntity
  8
0
  6
Continuous
 62
     7
370
    15
100
AcDbPolyline
 90
       23
 70
   128
 43
0.0
 10
425.5284788849
 20
394.8053849335
 10
425.5579599469
 20
394.8222703562
 10
426.7949488773
 20
395.323020441
 10
428.1780322848
 20
395.5071379427
 10
429.6747913403
 20
395.3703171204
 10
431.2501438962
 20
394.9157639307
 10
432.8671648372
 20
394.1541361409
 10
434.4879525499
 20
393.1032743081
 10
436.0745169907
 20
391.7878168652
 10
437.5896708407
 20
390.2386004975
 10
438.9978997824
 20
388.4919326447
 10
440.2661965772
 20
386.588757144
 10
441.3648325505
 20
384.5736795787
 10
442.2680572948
 20
382.4939306433
 10
442.9546999213
 20
380.3982646691
 10
443.4086662608
 20
378.3357904591
 10
443.6193155511
 20
376.3548625689
 10
443.5817100255
 20
374.5019090758
 10
443.2967314751
 20
372.8203574368
 10
442.7710595169
 20
371.3496249715
 10
442.0170155185
 20
370.1241838584
 10
441.0522734976
 20
369.1727576788
 10
440.5272594253
 20
368.8239213496
  0
LWPOLYLINE
  5
45F
330
1F
100
AcDbEntity
  8
0
  6
Continuous
 62
     7
370
    15
100
AcDbPolyline
 90
       17
 70
   128
 43
0.0
 10
431.1936212681
 20
385.0944452612
 10
431.134190919
 20
385.5210430167
 10
430.9492810877
 20
385.963956374
 10
430.6670426587
 20
386.355751979
 10
430.3304439324
 20
386.6367894757
 10
429.9907289735
 20
386.764272492
 10
429.6996162868
 20
386.7188024564
 10
429.501425218
 20
386.5072934973
 10
429.4263284244
 20
386.1619581606
 10
429.4857588558
 20
385.7353603576
 10
429.6706686459
 20
385.2924470241
 10
429.9529070543
 20
384.900651431
 10
430.2895058012
 20
384.6196139224
 10
430.6292207601
 20
384.492130906
 10
430.9203334468
 20
384.5376009416
 10
431.1185245567
 20
384.7491037933
 10
431.1936212681
 20
385.0944452612
  0
LWPOLYLINE
  5
460
330
1F
100
AcDbEntity
  8
0
  6
Continuous
 62
     7
370
    15
100
AcDbPolyline
 90
       17
 70
   128
 43
0.0
 10
426.3113977551
 20
382.5303608938
 10
426.2519670767
 20
382.9569588394
 10
426.0670573277
 20
383.3998721491
 10
425.784818981
 20
383.7916677066
 10
425.4482200901
 20
384.0727022565
 10
425.1085052959
 20
384.2001882197
 10
424.8173927327
 20
384.1547150709
 10
424.6192017874
 20
383.9432090824
 10
424.5441046644
 20
383.5978708939
 10
424.6035350135
 20
383.1712731384
 10
424.7884450917
 20
382.7283596386
 10
425.0706834384
 20
382.3365640811
 10
425.4072820001
 20
382.0555297213
 10
425.7469971236
 20
381.9280435681
 10
426.0381096868
 20
381.9735167168
 10
426.2363009614
 20
382.1850225152
 10
426.3113977551
 20
382.5303608938
  0
LWPOLYLINE
  5
461
330
1F
100
AcDbEntity
  8
0
  6
Continuous
 62
     7
370
    15
100
AcDbPolyline
 90
       17
 70
   128
 43
0.0
 10
430.9725553677
 20
374.201718562
 10
430.9131249363
 20
374.6283194068
 10
430.7282151461
 20
375.0712296985
 10
430.4459767377
 20
375.4630283334
 10
430.1093779909
 20
375.7440597583
 10
429.769663032
 20
375.8715458165
 10
429.4785503453
 20
375.8260757809
 10
429.2803592353
 20
375.6145698874
 10
429.205262524
 20
375.2692314613
 10
429.2646928731
 20
374.842630664
 10
429.4496027044
 20
374.3997203486
 10
429.7318411334
 20
374.0079217017
 10
430.0684398596
 20
373.7268902887
 10
430.4081548185
 20
373.5994042305
 10
430.6992675052
 20
373.6448742661
 10
430.897458574
 20
373.8563801834
 10
430.9725553677
 20
374.201718562
  0
LWPOLYLINE
  5
462
330
1F
100
AcDbEntity
  8
0
  6
Continuous
 62
     7
370
    15
100
AcDbPolyline
 90
       17
 70
   128
 43
0.0
 10
435.8547791277
 20
376.7658058287
 10
435.7953487785
 20
377.1924035841
 10
435.6104387003
 20
377.635317084
 10
435.3282003536
 20
378.0271126414
 10
434.991601792
 20
378.3081470012
 10
434.6518866685
 20
378.4356301126
 10
434.3607741053
 20
378.3901600058
 10
434.1625828307
 20
378.1786542073
 10
434.087486037
 20
377.8333158287
 10
434.1469167154
 20
377.4067178832
 10
434.3318264643
 20
376.9638045734
 10
434.614064811
 20
376.572009016
 10
434.9506637019
 20
376.2909744661
 10
435.2903784962
 20
376.1634885029
 10
435.5814910594
 20
376.2089616516
 10
435.7796820047
 20
376.4204645983
 10
435.8547791277
 20
376.7658058287
  0
ARC
  5
463
330
1F
100
AcDbEntity
  8
0
  6
Continuous
 62
     7
370
    15
100
AcDbCircle
 10
425.9269012265
 20
377.7153511464
 30
0.0
 40
24.87147063577051
100
AcDbArc
 50
15.2408895754
 51
44.7537320922
  0
ARC
  5
464
330
1F
100
AcDbEntity
  8
0
  6
Continuous
 62
     7
370
    15
100
AcDbCircle
 10
426.3575795737
 20
377.9639751788
 30
0.0
 40
24.42273032171088
100
AcDbArc
 50
13.9375752424
 51
46.0570641744
  0
LINE
  5
465
330
1F
100
AcDbEntity
  8
0
  6
Continuous
 62
     7
370
    15
100
AcDbLine
 10
448.618272252
 20
341.2446326567
 30
0.0
 11
459.8979279518
 21
347.7562392887
 31
0.0
  0
LINE
  5
466
330
1F
100
AcDbEntity
  8
0
  6
Continuous
 62
     7
370
    15
100
AcDbLine
 10
450.2065169691
 20
333.5200513908
 30
0.0
 11
459.8979279518
 21
339.1147838639
 31
0.0
  0
LINE
  5
467
330
1F
100
AcDbEntity
  8
0
  6
Continuous
 62
     7
370
    15
100
AcDbLine
 10
459.8979279518
 20
339.1147838639
 30
0.0
 11
459.6549622361
 21
338.9563450484
 31
0.0
  0
LWPOLYLINE
  5
468
330
1F
100
AcDbEntity
  8
0
  6
Continuous
 62
     7
370
    15
100
AcDbPolyline
 90
        9
 70
   128
 43
0.0
 10
451.6556122195
 20
352.8131268178
 10
452.3487510583
 20
353.0937602682
 10
453.379932153
 20
353.1788685083
 10
454.5114065304
 20
352.9424653482
 10
455.6933011436
 20
352.3949702422
 10
456.8735201521
 20
351.5605156021
 10
458.0000416986
 20
350.4758832557
 10
459.0232106115
 20
349.1888816558
 10
459.8979279518
 20
347.7562392887
  0
LINE
  5
469
330
1F
100
AcDbEntity
  8
0
  6
Continuous
 62
     7
370
    15
100
AcDbLine
 10
459.8979279518
 20
339.1147838639
 30
0.0
 11
459.8979279518
 21
347.7562392887
 31
0.0
  0
LWPOLYLINE
  5
46A
330
1F
100
AcDbEntity
  8
0
  6
Continuous
 62
     7
370
    15
100
AcDbPolyline
 90
       16
 70
   128
 43
0.0
 10
451.6556122195
 20
352.8131268178
 10
452.339643717
 20
353.0914253629
 10
453.4024326432
 20
353.1772272593
 10
454.5705624311
 20
352.9220402079
 10
455.7894127717
 20
352.3377971922
 10
457.0019915665
 20
351.4518157319
 10
458.1515999548
 20
350.3055236559
 10
459.1844835517
 20
348.9525209674
 10
460.052345773
 20
347.4560715083
 10
460.7146064476
 20
345.8861485056
 10
461.1402991665
 20
344.3161593883
 10
461.3095187632
 20
342.8195150828
 10
461.2143524964
 20
341.4661972403
 10
460.8592508097
 20
340.3194853106
 10
460.2608175859
 20
339.4329982502
 10
459.6549622361
 20
338.9563450484
  0
LWPOLYLINE
  5
46B
330
1F
100
AcDbEntity
  8
0
  6
Continuous
 62
     7
370
    15
100
AcDbPolyline
 90
       16
 70
   128
 43
0.0
 10
452.6015244774
 20
353.3591903409
 10
453.2855559749
 20
353.6374888861
 10
454.348344901
 20
353.7232907825
 10
455.5164746889
 20
353.468103731
 10
456.7353250295
 20
352.8838607154
 10
457.9479038244
 20
351.997879255
 10
459.0975122127
 20
350.8515871791
 10
460.1303958095
 20
349.4985844906
 10
460.9982580308
 20
348.0021350315
 10
461.6605187054
 20
346.4322120288
 10
462.0862114243
 20
344.8622229114
 10
462.2554310211
 20
343.3655786059
 10
462.1602647542
 20
342.0122607635
 10
461.8051630675
 20
340.8655488338
 10
461.2067298437
 20
339.9790617734
 10
460.600874494
 20
339.5024085715
  0
LWPOLYLINE
  5
46C
330
1F
100
AcDbEntity
  8
0
  6
Continuous
 62
     7
370
    15
100
AcDbPolyline
 90
       19
 70
   128
 43
0.0
 10
456.8499393196
 20
355.7964195955
 10
457.7576922159
 20
356.2191981848
 10
458.820481142
 20
356.3050000812
 10
459.98861093
 20
356.0498130297
 10
461.2074612706
 20
355.4655700141
 10
462.4200400654
 20
354.5795885537
 10
463.5696484537
 20
353.4332964778
 10
464.6025320505
 20
352.0802937893
 10
465.4703942718
 20
350.5838443302
 10
466.1326549465
 20
349.0139213275
 10
466.5583476653
 20
347.4439322102
 10
466.7275672621
 20
345.9472879047
 10
466.6324009953
 20
344.5939700622
 10
466.2772993086
 20
343.4472581325
 10
465.6788660847
 20
342.5607710721
 10
464.8650832092
 20
341.9759601564
 10
463.8740023713
 20
341.7201704485
 10
462.7519656776
 20
341.8053621042
 10
462.1537454929
 20
341.9767236227
  0
ARC
  5
46D
330
1F
100
AcDbEntity
  8
0
  6
Continuous
 62
     7
370
    15
100
AcDbCircle
 10
459.168569338
 20
352.9296114959
 30
0.0
 40
3.687090159172335
100
AcDbArc
 50
128.9653958821
 51
171.6258893076
  0
LWPOLYLINE
  5
46E
330
1F
100
AcDbEntity
  8
0
  6
Continuous
 62
     7
370
    15
100
AcDbPolyline
 90
       16
 70
   128
 43
0.0
 10
458.0195729762
 20
356.4869631628
 10
458.7036044738
 20
356.765261708
 10
459.7663933999
 20
356.8510636044
 10
460.9345231878
 20
356.5958765529
 10
462.1533735284
 20
356.0116335372
 10
463.3659523233
 20
355.1256520769
 10
464.5155607116
 20
353.979360001
 10
465.5484443084
 20
352.6263573125
 10
466.4163065297
 20
351.1299078534
 10
467.0785672043
 20
349.5599848507
 10
467.5042599232
 20
347.9899957333
 10
467.67347952
 20
346.4933514278
 10
467.5783132531
 20
345.1400335854
 10
467.2232115664
 20
343.9933216557
 10
466.6247783426
 20
343.1068345953
 10
466.0189229929
 20
342.6301813934
  0
LWPOLYLINE
  5
46F
330
1F
100
AcDbEntity
  8
0
  6
Continuous
 62
     7
370
    15
100
AcDbPolyline
 90
       32
 70
   128
 43
0.0
 10
421.0070540448
 20
338.1288580747
 10
421.1313589305
 20
339.9267639007
 10
421.5013595282
 20
341.5390094163
 10
422.1083841237
 20
342.9278039352
 10
422.9382048629
 20
344.0605962193
 10
423.9713696583
 20
344.9108340223
 10
425.1836638281
 20
345.4585886628
 10
426.5466718355
 20
345.6910212412
 10
428.0284450522
 20
345.6026838452
 10
429.5942528287
 20
345.1956471886
 10
431.2073936975
 20
344.4794513277
 10
432.8300569552
 20
343.4708843295
 10
434.4242088989
 20
342.1935847272
 10
435.9524835897
 20
340.6774915519
 10
437.3790599106
 20
338.9581418181
 10
438.6704999351
 20
337.0758352105
 10
439.796533994
 20
335.0746911358
 10
440.7307682821
 20
333.0016143697
 10
441.4513048774
 20
330.9051968164
 10
441.9412554059
 20
328.8345762923
 10
442.1891355099
 20
326.8382865526
 10
442.1891355099
 20
324.9631189044
 10
441.9412554059
 20
323.253025441
 10
441.4513048774
 20
321.7480897561
 10
440.7307682821
 20
320.4835860479
 10
439.796533994
 20
319.4891532313
 10
438.6704999351
 20
318.7881004078
 10
437.3790599106
 20
318.3968587142
 10
435.9524835897
 20
318.3245989413
 10
434.4242088989
 20
318.5730141654
 10
432.8300569552
 20
319.1362832196
 10
431.6119316544
 20
319.758680638
  0
LWPOLYLINE
  5
470
330
1F
100
AcDbEntity
  8
0
  6
Continuous
 62
     7
370
    15
100
AcDbPolyline
 90
       39
 70
   128
 43
0.0
 10
421.0070535509
 20
336.4960420586
 10
421.1324259373
 20
334.67648951
 10
421.5051226161
 20
332.7618182761
 10
422.1149776359
 20
330.8042550437
 10
422.9453561624
 20
328.8571973858
 10
423.9736068986
 20
326.9737554263
 10
425.1716821047
 20
325.2053051172
 10
426.5069015095
 20
323.6000852568
 10
427.9428439797
 20
322.2018819721
 10
429.4403405228
 20
321.0488341725
 10
430.9585432692
 20
320.1723943826
 10
432.4560398123
 20
319.5964694757
 10
433.8919822825
 20
319.3367688738
 10
435.2272016873
 20
319.4003772235
 10
436.4252768935
 20
319.7855593433
 10
437.4535276297
 20
320.4818082729
 10
438.2839061561
 20
321.4701312914
 10
438.8937611759
 20
322.7235709056
 10
439.2664578548
 20
324.2079357135
 10
439.3918302411
 20
325.8827363859
 10
439.2664578548
 20
327.7022889345
 10
438.8937611759
 20
329.6169601685
 10
438.2839061561
 20
331.5745234009
 10
437.4535276297
 20
333.5215810587
 10
436.4252768935
 20
335.4050230183
 10
435.2272016873
 20
337.1734733273
 10
433.8919822825
 20
338.7786931877
 10
432.4560398123
 20
340.1768964724
 10
430.9585432692
 20
341.329944272
 10
429.4403405228
 20
342.206384062
 10
427.9428439797
 20
342.7823089688
 10
426.5069015095
 20
343.0420095707
 10
425.1716821047
 20
342.978401221
 10
423.9736068986
 20
342.5932191013
 10
422.9453561624
 20
341.8969701716
 10
422.1149776359
 20
340.9086471532
 10
421.5051226161
 20
339.6552075389
 10
421.1324259373
 20
338.1708427311
 10
421.0070535509
 20
336.4960420586
  0
LWPOLYLINE
  5
471
330
1F
100
AcDbEntity
  8
0
  6
Continuous
 62
     7
370
    15
100
AcDbPolyline
 90
       22
 70
   128
 43
0.0
 10
425.5284788849
 20
345.8129380759
 10
426.5978774577
 20
346.2749968134
 10
427.9608854651
 20
346.5074293918
 10
429.4426586818
 20
346.4190919958
 10
431.0084664583
 20
346.0120553392
 10
432.621607327
 20
345.2958594783
 10
434.2442705848
 20
344.2872924801
 10
435.8384225284
 20
343.0099928778
 10
437.3666972192
 20
341.4938997025
 10
438.7932735402
 20
339.7745499687
 10
440.0847135646
 20
337.8922433611
 10
441.2107476236
 20
335.8910992864
 10
442.1449819117
 20
333.8180225203
 10
442.8655185069
 20
331.721604967
 10
443.3554690354
 20
329.6509844429
 10
443.6033491395
 20
327.6546947032
 10
443.6033491395
 20
325.779527055
 10
443.3554690354
 20
324.0694335916
 10
442.8655185069
 20
322.5644979067
 10
442.1449819117
 20
321.2999941985
 10
441.2107476236
 20
320.3055613819
 10
440.5272594253
 20
319.8314729711
  0
LWPOLYLINE
  5
472
330
1F
100
AcDbEntity
  8
0
  6
Continuous
 62
     7
370
    15
100
AcDbPolyline
 90
       17
 70
   128
 43
0.0
 10
435.8562964142
 20
327.9237566199
 10
435.7890142389
 20
328.3531935873
 10
435.5974126899
 20
328.7949339205
 10
435.3106603499
 20
329.1817272998
 10
434.9724127928
 20
329.4546877654
 10
434.6341652357
 20
329.5722596165
 10
434.3474125665
 20
329.5165436319
 10
434.1558106882
 20
329.2960219284
 10
434.0885291715
 20
328.9442669269
 10
434.1558106882
 20
328.5148303397
 10
434.3474125665
 20
328.0730898164
 10
434.6341652357
 20
327.686296247
 10
434.9724127928
 20
327.4133357814
 10
435.3106603499
 20
327.2957639303
 10
435.5974126899
 20
327.351480105
 10
435.7890142389
 20
327.5720019986
 10
435.8562964142
 20
327.9237566199
  0
LWPOLYLINE
  5
473
330
1F
100
AcDbEntity
  8
0
  6
Continuous
 62
     7
370
    15
100
AcDbPolyline
 90
       17
 70
   128
 43
0.0
 10
431.0833253527
 20
325.1674835406
 10
431.0160437537
 20
325.5969201753
 10
430.8244418754
 20
326.0386609838
 10
430.5376894531
 20
326.4254544107
 10
430.199441896
 20
326.6984147812
 10
429.8611943389
 20
326.8159867274
 10
429.5744419166
 20
326.7602706002
 10
429.3828400384
 20
326.5397486115
 10
429.3155584393
 20
326.1879936576
 10
429.3828400384
 20
325.7585570228
 10
429.5744419166
 20
325.3168165946
 10
429.8611943389
 20
324.9300235479
 10
430.199441896
 20
324.6570624169
 10
430.5376894531
 20
324.5394912312
 10
430.8244418754
 20
324.5952069782
 10
431.0160437537
 20
324.8157285866
 10
431.0833253527
 20
325.1674835406
  0
LWPOLYLINE
  5
474
330
1F
100
AcDbEntity
  8
0
  6
Continuous
 62
     7
370
    15
100
AcDbPolyline
 90
       17
 70
   128
 43
0.0
 10
426.3103546206
 20
333.4345115176
 10
426.2430731038
 20
333.8639481048
 10
426.0514712256
 20
334.3056886281
 10
425.7647185563
 20
334.6924821976
 10
425.4264709992
 20
334.9654426632
 10
425.0882234421
 20
335.0830145143
 10
424.8014711021
 20
335.0272983395
 10
424.6098695531
 20
334.806776446
 10
424.5425873778
 20
334.4550218247
 10
424.6098695531
 20
334.0255848573
 10
424.8014711021
 20
333.5838445241
 10
425.0882234421
 20
333.1970511447
 10
425.4264709992
 20
332.9240906791
 10
425.7647185563
 20
332.806518828
 10
426.0514712256
 20
332.8622348127
 10
426.2430731038
 20
333.0827565161
 10
426.3103546206
 20
333.4345115176
  0
LWPOLYLINE
  5
475
330
1F
100
AcDbEntity
  8
0
  6
Continuous
 62
     7
370
    15
100
AcDbPolyline
 90
       17
 70
   128
 43
0.0
 10
431.0833253527
 20
336.190784787
 10
431.0160437537
 20
336.6202214217
 10
430.8244418754
 20
337.06196185
 10
430.5376894531
 20
337.4487548966
 10
430.199441896
 20
337.7217160276
 10
429.8611943389
 20
337.8392872133
 10
429.5744419166
 20
337.7835714663
 10
429.3828400384
 20
337.5630498579
 10
429.3155584393
 20
337.2112949039
 10
429.3828400384
 20
336.7818582692
 10
429.5744419166
 20
336.3401174607
 10
429.8611943389
 20
335.9533240339
 10
430.199441896
 20
335.6803636633
 10
430.5376894531
 20
335.5627917172
 10
430.8244418754
 20
335.6185078444
 10
431.0160437537
 20
335.839029833
 10
431.0833253527
 20
336.190784787
  0
LWPOLYLINE
  5
476
330
1F
100
AcDbEntity
  8
0
  6
Continuous
 62
     7
370
    15
100
AcDbPolyline
 90
       13
 70
   128
 43
0.0
 10
519.3198193876
 20
261.3332386163
 10
519.840469944
 20
261.7977842882
 10
520.2242538782
 20
262.5959504389
 10
520.3555571163
 20
263.621617312
 10
520.2246490049
 20
264.7987224959
 10
519.8412338556
 20
266.0399596777
 10
519.2337449862
 20
267.2532820551
 10
518.4472479145
 20
268.3486915526
 10
517.5400633421
 20
269.2449518711
 10
516.5794787126
 20
269.8755866166
 10
515.6367327368
 20
270.1938370476
 10
514.7817470363
 20
270.1760867059
 10
514.3202285083
 20
269.9937269848
  0
ARC
  5
477
330
1F
100
AcDbEntity
  8
0
  6
Continuous
 62
     7
370
    15
100
AcDbCircle
 10
523.5880411195
 20
271.7565096736
 30
0.0
 40
17.35349454117
100
AcDbArc
 50
174.5667833087
 51
199.6837884968
  0
LWPOLYLINE
  5
478
330
1F
100
AcDbEntity
  8
0
  6
Continuous
 62
     7
370
    15
100
AcDbPolyline
 90
       35
 70
   128
 43
0.0
 10
512.2481788001
 20
257.25086654
 10
513.3995042608
 20
256.0443754796
 10
514.9721770345
 20
254.6694145044
 10
516.5881662318
 20
253.5521450073
 10
518.2095871041
 20
252.718756817
 10
519.7984337309
 20
252.1887811383
 10
521.3174746399
 20
251.9746404411
 10
522.731095744
 20
252.0813565226
 10
524.0061696204
 20
252.5064258722
 10
525.1128036167
 20
253.239886663
 10
526.025061616
 20
254.2645469582
 10
526.7215646294
 20
255.556380208
 10
527.1859807531
 20
257.0851245406
 10
527.4074255636
 20
258.8149337559
 10
527.3807149983
 20
260.7052716534
 10
527.1064707234
 20
262.7118185142
 10
526.5911201333
 20
264.7875539999
 10
525.8467382999
 20
266.8838248278
 10
524.8907845554
 20
268.9514854403
 10
523.7456546814
 20
270.9420812436
 10
522.4381962203
 20
272.8089497119
 10
520.999049931
 20
274.5083336438
 10
519.4619543659
 20
276.0004031588
 10
517.8629345435
 20
277.2501833862
 10
516.2394642806
 20
278.2283817697
 10
514.6296074498
 20
278.9120693621
 10
513.0710907489
 20
279.2852191457
 10
511.6004449587
 20
279.3390892249
 10
510.2521409331
 20
279.0724143823
 10
509.05778354
 20
278.4914455464
 10
508.0453661894
 20
277.6098021927
 10
507.238617557
 20
276.4481468033
 10
506.656451041
 20
275.0337057245
 10
506.3125116837
 20
273.3996333769
 10
506.3125116837
 20
273.3996333769
  0
LWPOLYLINE
  5
479
330
1F
100
AcDbEntity
  8
0
  6
Continuous
 62
     7
370
    15
100
AcDbPolyline
 90
       22
 70
   128
 43
0.0
 10
525.7336293294
 20
253.489155452
 10
526.5270174108
 20
254.0562949087
 10
527.4392754102
 20
255.0809552039
 10
528.1357784236
 20
256.3727884537
 10
528.6001945473
 20
257.9015327863
 10
528.8216393577
 20
259.6313420016
 10
528.7949287925
 20
261.5216798991
 10
528.5206845176
 20
263.5282267599
 10
528.0053339274
 20
265.6039622455
 10
527.2609520941
 20
267.7002330734
 10
526.3049983496
 20
269.7678936859
 10
525.1598684756
 20
271.7584894892
 10
523.8524100145
 20
273.6253579575
 10
522.4132637252
 20
275.3247418895
 10
520.87616816
 20
276.8168114045
 10
519.2771483377
 20
278.0665916318
 10
517.6536780748
 20
279.0447900153
 10
516.043821244
 20
279.7284776077
 10
514.4853045431
 20
280.1016273913
 10
513.0146587529
 20
280.1554974706
 10
511.6663547273
 20
279.8888226279
 10
510.7348461549
 20
279.4706235984
  0
ARC
  5
47A
330
1F
100
AcDbEntity
  8
0
  6
Continuous
 62
     7
370
    15
100
AcDbCircle
 10
509.1021786016
 20
261.208062449
 30
0.0
 40
19.75412925638186
100
AcDbArc
 50
2.2675338569
 51
57.7271002467
  0
LWPOLYLINE
  5
47B
330
1F
100
AcDbEntity
  8
0
  6
Continuous
 62
     7
370
    15
100
AcDbPolyline
 90
       15
 70
   128
 43
0.0
 10
513.1682866499
 20
258.0386500299
 10
513.9293797087
 20
258.224788464
 10
514.5371688743
 20
258.7362537472
 10
514.9209528085
 20
259.534419898
 10
515.0522560467
 20
260.560086771
 10
514.9213479352
 20
261.737191955
 10
514.537932786
 20
262.9784291367
 10
513.9304439166
 20
264.1917515141
 10
513.1439468449
 20
265.2871610116
 10
512.2367622725
 20
266.1834213301
 10
511.276177643
 20
266.8140560756
 10
510.3334316672
 20
267.1323065066
 10
509.4784459666
 20
267.1145561649
 10
508.774630475
 20
266.7621250803
 10
508.3909150294
 20
266.3141946833
  0
LWPOLYLINE
  5
47C
330
1F
100
AcDbEntity
  8
0
  6
Continuous
 62
     7
370
    15
100
AcDbPolyline
 90
       12
 70
   128
 43
0.0
 10
513.5424979811
 20
259.1531222174
 10
513.8738828459
 20
259.4359937963
 10
514.2299394221
 20
260.1129608534
 10
514.3449160249
 20
261.0110844002
 10
514.2085973117
 20
262.0505605024
 10
513.8330899649
 20
263.1390335988
 10
513.2517637517
 20
264.1797820244
 10
512.5162749034
 20
265.0803352969
 10
511.6919668403
 20
265.760671475
 10
510.8520907849
 20
266.1603436739
 10
510.0712677327
 20
266.243836153
 10
509.5431624525
 20
266.0809228246
  0
LWPOLYLINE
  5
47D
330
1F
100
AcDbEntity
  8
0
  6
Continuous
 62
     7
370
    15
100
AcDbPolyline
 90
       16
 70
   128
 43
0.0
 10
415.6811298311
 20
336.1919615675
 10
414.9813340951
 20
336.6757388971
 10
413.3575846094
 20
337.5918165618
 10
411.7556777279
 20
338.2093111683
 10
410.2131610243
 20
338.5137470263
 10
408.7661964947
 20
338.4979852616
 10
407.4486912786
 20
338.1624001617
 10
406.2915284793
 20
337.5148578108
 10
405.3218348622
 20
336.5705304679
 10
404.5623328469
 20
335.3515588609
 10
404.0308347454
 20
333.8865076474
 10
403.7397844147
 20
332.209723541
 10
403.6960149125
 20
330.3605048633
 10
403.9005535683
 20
328.3821950536
 10
404.3485956414
 20
326.3211636463
 10
404.7181023307
 20
325.1009382701
  0
LWPOLYLINE
  5
47E
330
1F
100
AcDbEntity
  8
0
  6
Continuous
 62
     7
370
    15
100
AcDbPolyline
 90
        8
 70
   128
 43
0.0
 10
416.4198244741
 20
337.4762679137
 10
416.3955478893
 20
337.4921471428
 10
414.7717984036
 20
338.4082248074
 10
413.1698915221
 20
339.0257194139
 10
411.6273748185
 20
339.3301552719
 10
410.1804102889
 20
339.3143935073
 10
408.8629050728
 20
338.9788084074
 10
408.2043605648
 20
338.6602130438
  0
ARC
  5
47F
330
1F
100
AcDbEntity
  8
0
  6
Continuous
 62
     7
370
    15
100
AcDbCircle
 10
407.3698656312
 20
324.5869653432
 30
0.0
 40
1.767402719912319
100
AcDbArc
 50
94.1635771574
 51
151.621422391
  0
LWPOLYLINE
  5
480
330
1F
100
AcDbEntity
  8
0
  6
Continuous
 62
     7
370
    15
100
AcDbPolyline
 90
        3
 70
   128
 43
0.0
 10
404.8773489294
 20
325.1928763193
 10
405.52684767
 20
325.4097452341
 10
406.0265933895
 20
325.4153769662
  0
ARC
  5
481
330
1F
100
AcDbEntity
  8
0
  6
Continuous
 62
     7
370
    15
100
AcDbCircle
 10
492.2497060313
 20
251.4227722704
 30
0.0
 40
7.184203284903353
100
AcDbArc
 50
359.9000911732
 51
67.1765525129
  0
LWPOLYLINE
  5
482
330
1F
100
AcDbEntity
  8
0
  6
Continuous
 62
     7
370
    15
100
AcDbPolyline
 90
       14
 70
   128
 43
0.0
 10
507.5426859955
 20
266.081134974
 10
507.7299339068
 20
266.174129779
 10
508.5372199115
 20
266.3140546548
 10
509.4561423812
 20
266.1155475171
 10
510.4185551303
 20
265.5933275748
 10
511.3530719339
 20
264.7861352348
 10
512.1903875682
 20
263.7538367583
 10
512.8684039202
 20
262.5729866804
 10
513.3368397996
 20
261.3311612735
 10
513.5609398615
 20
260.1204736673
 10
513.5240982476
 20
259.0306995105
 10
513.2290386979
 20
258.1426701806
 10
512.6976459635
 20
257.522249901
 10
512.5422768748
 20
257.4206466055
  0
ARC
  5
483
330
1F
100
AcDbEntity
  8
0
  6
Continuous
 62
     7
370
    15
100
AcDbCircle
 10
492.5511174495
 20
251.6456390638
 30
0.0
 40
6.199876961945026
100
AcDbArc
 50
11.9274361466
 51
55.1491618261
  0
LWPOLYLINE
  5
484
330
1F
100
AcDbEntity
  8
0
  6
Continuous
 62
     7
370
    15
100
AcDbPolyline
 90
       15
 70
   128
 43
0.0
 10
492.5577087127
 20
245.4919037463
 10
493.1065133639
 20
243.4102519565
 10
493.4155867408
 20
241.3909417128
 10
493.477690122
 20
239.4812913789
 10
493.2913694415
 20
237.7260707896
 10
492.8609868979
 20
236.1664183549
 10
492.1966366615
 20
234.8388859102
 10
491.3138814562
 20
233.7745991412
 10
490.2334206528
 20
232.9984940474
 10
488.9805739707
 20
232.5287693606
 10
487.5847072265
 20
232.3764332553
 10
486.0785474481
 20
232.5450477687
 10
484.4973820845
 20
233.0306800561
 10
482.8782845571
 20
233.8219296946
 10
482.877172934
 20
233.822571421
  0
LWPOLYLINE
  5
485
330
1F
100
AcDbEntity
  8
0
  6
Continuous
 62
     7
370
    15
100
AcDbPolyline
 90
       19
 70
   128
 43
0.0
 10
472.2722961814
 20
252.1927491235
 10
472.3423468778
 20
253.5576633913
 10
472.6516072812
 20
255.2199806394
 10
473.2005857882
 20
256.6678166133
 10
473.9764144388
 20
257.8672488978
 10
474.9609095023
 20
258.7901553899
 10
476.130995579
 20
259.4149033178
 10
477.4592482415
 20
259.7268481558
 10
478.9145367737
 20
259.7186804553
 10
480.4627380335
 20
259.3905977766
 10
482.0675793893
 20
258.7502773913
 10
483.6914342422
 20
257.8127394738
 10
485.2962439879
 20
256.5999517466
 10
486.8443925641
 20
255.1403459086
 10
488.2995915343
 20
253.4681302593
 10
489.6277388296
 20
251.6225019399
 10
490.7976984658
 20
249.6467192417
 10
491.7820433811
 20
247.5870948232
 10
492.5577087127
 20
245.4919037463
  0
LWPOLYLINE
  5
486
330
1F
100
AcDbEntity
  8
0
  6
Continuous
 62
     7
370
    15
100
AcDbPolyline
 90
       39
 70
   128
 43
0.0
 10
489.8529849236
 20
244.7525371517
 10
489.1197351266
 20
246.7109614368
 10
488.1776687687
 20
248.6296304209
 10
487.0524954274
 20
250.4561962511
 10
485.7748980085
 20
252.1408454034
 10
484.3797266873
 20
253.6376187707
 10
482.9050453364
 20
254.9056861094
 10
481.391072586
 20
255.9104653408
 10
479.8791070792
 20
256.6245410902
 10
478.4103895074
 20
257.0284402518
 10
477.0249909867
 20
257.1111429155
 10
475.7606908985
 20
256.8703955724
 10
474.6519811699
 20
256.3127627328
 10
473.7291074331
 20
255.4534534508
 10
473.0172392593
 20
254.315912117
 10
472.5357958087
 20
252.9311613561
 10
472.2979058248
 20
251.336985238
 10
472.3100651906
 20
249.5768554732
 10
472.5719367313
 20
247.6987967825
 10
473.0763791902
 20
245.7540256714
 10
473.8096342556
 20
243.7955953032
 10
474.7516953451
 20
241.8769293604
 10
475.8768739548
 20
240.050357447
 10
477.1544713737
 20
238.3657113365
 10
478.5496426949
 20
236.8689379692
 10
480.0243240458
 20
235.6008706306
 10
481.5382967962
 20
234.5960913992
 10
483.050262303
 20
233.8820186916
 10
484.5189746064
 20
233.4781195295
 10
485.9043783955
 20
233.3954168663
 10
487.1686732153
 20
233.6361672507
 10
488.2773829439
 20
234.1937970485
 10
489.2002566807
 20
235.0531063305
 10
489.9121274887
 20
236.1906491855
 10
490.3935709393
 20
237.5753938627
 10
490.631458289
 20
239.1695715014
 10
490.6193041915
 20
240.9296982249
 10
490.3574300167
 20
242.80776452
 10
489.8529849236
 20
244.7525371517
  0
LWPOLYLINE
  5
487
330
1F
100
AcDbEntity
  8
0
  6
Continuous
 62
     7
370
    15
100
AcDbPolyline
 90
        9
 70
   128
 43
0.0
 10
493.9719223423
 20
246.3083118969
 10
494.5207269935
 20
244.2266601071
 10
494.8298003703
 20
242.2073498634
 10
494.8919037516
 20
240.2976995295
 10
494.705583071
 20
238.5424789402
 10
494.2752005275
 20
236.9828265055
 10
493.6108502911
 20
235.6552940608
 10
492.7280950857
 20
234.5910072918
 10
491.7925035374
 20
233.895360598
  0
LWPOLYLINE
  5
488
330
1F
100
AcDbEntity
  8
0
  6
Continuous
 62
     7
370
    15
100
AcDbPolyline
 90
       14
 70
   128
 43
0.0
 10
476.7937203629
 20
259.8768287444
 10
477.5452092086
 20
260.2313114684
 10
478.873461871
 20
260.5432563064
 10
480.3287504033
 20
260.5350886059
 10
481.8769516631
 20
260.2070059272
 10
483.4817930189
 20
259.5666855419
 10
485.1056478717
 20
258.6291476244
 10
486.7104576174
 20
257.4163598972
 10
488.2586061936
 20
255.9567540592
 10
489.7138051638
 20
254.2845384099
 10
491.0419524591
 20
252.4389100905
 10
492.2119120953
 20
250.4631273923
 10
493.1962570106
 20
248.4035029738
 10
493.9719223423
 20
246.3083118969
  0
LWPOLYLINE
  5
489
330
1F
100
AcDbEntity
  8
0
  6
Continuous
 62
     7
370
    15
100
AcDbPolyline
 90
       17
 70
   128
 43
0.0
 10
482.6103387666
 20
239.1449007759
 10
482.8100832184
 20
238.7049400245
 10
483.1022135621
 20
238.3246264838
 10
483.4422490675
 20
238.0618697918
 10
483.7784281363
 20
237.9566563143
 10
484.0595686893
 20
238.0250148481
 10
484.2428706018
 20
238.256538245
 10
484.3004273918
 20
238.6159718684
 10
484.2234725148
 20
239.0486041537
 10
484.023728063
 20
239.4885649051
 10
483.7315977193
 20
239.8688784459
 10
483.3915622138
 20
240.1316412215
 10
483.055383145
 20
240.2368486154
 10
482.7742425921
 20
240.1684900815
 10
482.5909406795
 20
239.9369727684
 10
482.5333838895
 20
239.5775330612
 10
482.6103387666
 20
239.1449007759
  0
LWPOLYLINE
  5
48A
330
1F
100
AcDbEntity
  8
0
  6
Continuous
 62
     7
370
    15
100
AcDbPolyline
 90
       17
 70
   128
 43
0.0
 10
485.0135836788
 20
245.0414209346
 10
485.2133281306
 20
244.6014601832
 10
485.505453206
 20
244.2211557675
 10
485.8454939798
 20
243.9583899505
 10
486.1816730485
 20
243.853176473
 10
486.4628136015
 20
243.9215350068
 10
486.6461155141
 20
244.1530584036
 10
486.7036670357
 20
244.5124950685
 10
486.626717427
 20
244.9451243124
 10
486.4269729752
 20
245.3850911475
 10
486.1348426315
 20
245.7653986046
 10
485.7948071261
 20
246.0281613802
 10
485.4586280573
 20
246.1333748578
 10
485.1774875043
 20
246.0650163239
 10
484.9941855918
 20
245.8334929271
 10
484.9366288018
 20
245.4740532199
 10
485.0135836788
 20
245.0414209346
  0
LWPOLYLINE
  5
48B
330
1F
100
AcDbEntity
  8
0
  6
Continuous
 62
     7
370
    15
100
AcDbPolyline
 90
       17
 70
   128
 43
0.0
 10
478.705891599
 20
251.4579525857
 10
478.9056413192
 20
251.017988793
 10
479.1977663945
 20
250.6376782936
 10
479.5378071683
 20
250.3749185603
 10
479.8739862371
 20
250.2697050827
 10
480.1551267901
 20
250.3380636165
 10
480.3384287026
 20
250.5695870134
 10
480.3959802243
 20
250.9290236782
 10
480.3190306156
 20
251.3616529222
 10
480.1192861638
 20
251.8016167154
 10
479.8271558201
 20
252.1819272143
 10
479.4871203146
 20
252.44468999
 10
479.1509412458
 20
252.5499004257
 10
478.8698006929
 20
252.48153885
 10
478.6864987803
 20
252.250018495
 10
478.6289419903
 20
251.8905818297
 10
478.705891599
 20
251.4579525857
  0
LWPOLYLINE
  5
48C
330
1F
100
AcDbEntity
  8
0
  6
Continuous
 62
     7
370
    15
100
AcDbPolyline
 90
       17
 70
   128
 43
0.0
 10
476.3026519551
 20
245.5614293857
 10
476.5023964069
 20
245.1214686343
 10
476.7945214823
 20
244.7411581349
 10
477.1345622561
 20
244.4783923179
 10
477.4707413249
 20
244.373184924
 10
477.7518818779
 20
244.4415434579
 10
477.9351837904
 20
244.6730668547
 10
477.9927405804
 20
245.0325004782
 10
477.9157857034
 20
245.4651327635
 10
477.7160412516
 20
245.9050935149
 10
477.4239109078
 20
246.2854070556
 10
477.0838754024
 20
246.5481698313
 10
476.7476963336
 20
246.6533772251
 10
476.4665557806
 20
246.5850186913
 10
476.2832538681
 20
246.3535013782
 10
476.2256970781
 20
245.994061671
 10
476.3026519551
 20
245.5614293857
  0
LWPOLYLINE
  5
48D
330
1F
100
AcDbEntity
  8
0
  6
Continuous
 62
     7
370
    15
100
AcDbPolyline
 90
       32
 70
   128
 43
0.0
 10
369.7418132254
 20
311.3823370481
 10
369.8661148184
 20
313.1802411628
 10
370.2361167331
 20
314.792490671
 10
370.8431419871
 20
316.181283669
 10
371.6729607508
 20
317.3140740518
 10
372.7061275217
 20
318.1643137561
 10
373.9184236672
 20
318.7120672561
 10
375.2814316746
 20
318.9444983135
 10
376.7632042328
 20
318.8561620582
 10
378.3290123386
 20
318.4491236906
 10
379.9421513552
 20
317.7329311803
 10
381.5648155596
 20
316.7243628751
 10
383.1589674209
 20
315.4470625599
 10
384.6872437581
 20
313.9309676737
 10
386.1138197497
 20
312.2116188905
 10
387.40525714
 20
310.329314564
 10
388.5312918575
 20
308.3281693487
 10
389.4655268041
 20
306.2550937233
 10
390.1860640579
 20
304.1586746492
 10
390.6760132693
 20
302.0880516534
 10
390.9238946905
 20
300.0917655261
 10
390.9238946905
 20
298.2165978778
 10
390.6760132693
 20
296.5065034638
 10
390.1860640579
 20
295.0015698703
 10
389.4655268041
 20
293.7370623597
 10
388.5312918575
 20
292.742634486
 10
387.40525714
 20
292.0415812823
 10
386.1138197497
 20
291.6503357866
 10
384.6872437581
 20
291.5780735422
 10
383.1589674209
 20
291.8264919981
 10
381.5648155596
 20
292.3897602444
 10
380.3466926122
 20
293.012157825
  0
LWPOLYLINE
  5
48E
330
1F
100
AcDbEntity
  8
0
  6
Continuous
 62
     7
370
    15
100
AcDbPolyline
 90
       39
 70
   128
 43
0.0
 10
369.7418107559
 20
309.7495221726
 10
369.8671818251
 20
307.929968293
 10
370.2398811382
 20
306.0152945879
 10
370.8497354994
 20
304.0577317356
 10
371.6801127088
 20
302.11067788
 10
372.7083641035
 20
300.2272324984
 10
373.906440956
 20
298.4587819994
 10
375.2416583852
 20
296.8535670818
 10
376.6776015139
 20
295.4553626565
 10
378.175100115
 20
294.3023129084
 10
379.6933033553
 20
293.4258728333
 10
381.190796688
 20
292.8499505403
 10
382.6267398167
 20
292.5902503186
 10
383.9619625143
 20
292.6538529652
 10
385.1600340984
 20
293.0390364154
 10
386.1882854932
 20
293.7352880067
 10
387.0186653367
 20
294.723607223
 10
387.6285196979
 20
295.9770472174
 10
388.0012163768
 20
297.4614129758
 10
388.126587446
 20
299.1362164999
 10
388.0012163768
 20
300.9557642957
 10
387.6285196979
 20
302.8704364802
 10
387.0186653367
 20
304.8279993325
 10
386.1882854932
 20
306.7750607925
 10
385.1600340984
 20
308.6585031322
 10
383.9619625143
 20
310.4269505899
 10
382.6267398167
 20
312.0321715907
 10
381.190796688
 20
313.430376016
 10
379.6933033553
 20
314.5834227227
 10
378.175100115
 20
315.4598627978
 10
376.6776015139
 20
316.0357881322
 10
375.2416583852
 20
316.2954883539
 10
373.906440956
 20
316.2318796241
 10
372.7083641035
 20
315.8466992152
 10
371.6801127088
 20
315.1504506658
 10
370.8497354994
 20
314.1621238451
 10
370.2398811382
 20
312.9086838507
 10
369.8671818251
 20
311.4243196129
 10
369.7418107559
 20
309.7495221726
  0
LWPOLYLINE
  5
48F
330
1F
100
AcDbEntity
  8
0
  6
Continuous
 62
     7
370
    15
100
AcDbPolyline
 90
       22
 70
   128
 43
0.0
 10
374.2632347728
 20
319.0664181897
 10
375.3326372968
 20
319.5284754067
 10
376.6956453042
 20
319.7609064641
 10
378.1774178624
 20
319.6725702088
 10
379.7432259681
 20
319.2655318412
 10
381.3563649847
 20
318.5493393309
 10
382.9790291891
 20
317.5407710257
 10
384.5731810505
 20
316.2634707105
 10
386.1014573876
 20
314.7473758243
 10
387.5280333793
 20
313.0280270411
 10
388.8194707696
 20
311.1457227146
 10
389.9455054871
 20
309.1445774993
 10
390.8797404337
 20
307.0715018739
 10
391.6002776875
 20
304.9750827998
 10
392.0902268989
 20
302.904459804
 10
392.33810832
 20
300.9081736767
 10
392.33810832
 20
299.0330060284
 10
392.0902268989
 20
297.3229116144
 10
391.6002776875
 20
295.8179780209
 10
390.8797404337
 20
294.5534705103
 10
389.9455054871
 20
293.5590426366
 10
389.2620179473
 20
293.0849500433
  0
LWPOLYLINE
  5
490
330
1F
100
AcDbEntity
  8
0
  6
Continuous
 62
     7
370
    15
100
AcDbPolyline
 90
       17
 70
   128
 43
0.0
 10
379.8180843687
 20
309.4442627148
 10
379.7508021934
 20
309.8736989217
 10
379.5592026201
 20
310.3154399205
 10
379.2724459995
 20
310.7022331094
 10
378.9342017351
 20
310.9751923395
 10
378.5959522024
 20
311.0927646657
 10
378.3092008502
 20
311.0370505824
 10
378.1175960085
 20
310.8165287835
 10
378.0503191016
 20
310.4647718813
 10
378.1175960085
 20
310.0353387158
 10
378.3092008502
 20
309.5935977174
 10
378.5959522024
 20
309.2068014863
 10
378.9342017351
 20
308.9338392147
 10
379.2724459995
 20
308.8162699299
 10
379.5592026201
 20
308.8719870556
 10
379.7508021934
 20
309.0925088539
 10
379.8180843687
 20
309.4442627148
  0
LWPOLYLINE
  5
491
330
1F
100
AcDbEntity
  8
0
  6
Continuous
 62
     7
370
    15
100
AcDbPolyline
 90
       17
 70
   128
 43
0.0
 10
375.0451118255
 20
306.6879916316
 10
374.9778296502
 20
307.1174247967
 10
374.7862300769
 20
307.5591688373
 10
374.4994787247
 20
307.9459589848
 10
374.161229192
 20
308.2189212563
 10
373.8229796592
 20
308.3364935825
 10
373.536228307
 20
308.2807794991
 10
373.3446287337
 20
308.0602516171
 10
373.2773465584
 20
307.7085007981
 10
373.3446287337
 20
307.2790615494
 10
373.536228307
 20
306.8373235924
 10
373.8229796592
 20
306.4505334449
 10
374.161229192
 20
306.1775711734
 10
374.4994787247
 20
306.0599988472
 10
374.7862300769
 20
306.1157129306
 10
374.9778296502
 20
306.3362347289
 10
375.0451118255
 20
306.6879916316
  0
LWPOLYLINE
  5
492
330
1F
100
AcDbEntity
  8
0
  6
Continuous
 62
     7
370
    15
100
AcDbPolyline
 90
       17
 70
   128
 43
0.0
 10
379.8180843687
 20
298.4209607079
 10
379.7508021934
 20
298.8503999567
 10
379.5592026201
 20
299.2921379137
 10
379.2724459995
 20
299.6789311025
 10
378.9342017351
 20
299.9518903327
 10
378.5959522024
 20
300.0694626589
 10
378.3092008502
 20
300.0137485755
 10
378.1175960085
 20
299.7932298185
 10
378.0503191016
 20
299.4414698745
 10
378.1175960085
 20
299.0120336671
 10
378.3092008502
 20
298.5702926687
 10
378.5959522024
 20
298.1835025213
 10
378.9342017351
 20
297.9105402497
 10
379.2724459995
 20
297.7929709649
 10
379.5592026201
 20
297.8486820069
 10
379.7508021934
 20
298.0692038052
 10
379.8180843687
 20
298.4209607079
  0
LWPOLYLINE
  5
493
330
1F
100
AcDbEntity
  8
0
  6
Continuous
 62
     7
370
    15
100
AcDbPolyline
 90
       17
 70
   128
 43
0.0
 10
384.5910569119
 20
301.177234833
 10
384.5237747366
 20
301.6066679981
 10
384.3321698949
 20
302.0484150801
 10
384.0454185427
 20
302.4352052276
 10
383.70716901
 20
302.7081674991
 10
383.3689247456
 20
302.8257367839
 10
383.0821733934
 20
302.7700227006
 10
382.8905685517
 20
302.5494978599
 10
382.8232863764
 20
302.1977470409
 10
382.8905685517
 20
301.7683077921
 10
383.0821733934
 20
301.3265667938
 10
383.3689247456
 20
300.9397766463
 10
383.70716901
 20
300.6668174162
 10
384.0454185427
 20
300.54924509
 10
384.3321698949
 20
300.6049591733
 10
384.5237747366
 20
300.8254779303
 10
384.5910569119
 20
301.177234833
  0
LWPOLYLINE
  5
494
330
1F
100
AcDbEntity
  8
0
  6
Continuous
 62
     7
370
    15
100
AcDbPolyline
 90
       37
 70
   128
 43
0.0
 10
395.8997119484
 20
296.30957812
 10
395.8204021162
 20
294.1378590045
 10
395.4814545263
 20
292.1489262427
 10
394.8891306199
 20
290.3795062169
 10
394.0543675041
 20
288.8622876903
 10
392.992583023
 20
287.625279958
 10
391.723388632
 20
286.6913398118
 10
390.2702285156
 20
286.0777167499
 10
388.6599344113
 20
285.7957381035
 10
386.9222567256
 20
285.8506112722
 10
385.0892797472
 20
286.241323288
 10
383.1948632003
 20
286.9606650982
 10
381.2739942377
 20
287.9953501361
 10
379.3621499689
 20
289.3262606517
 10
377.4946389165
 20
290.9288157139
 10
375.7059582758
 20
292.7734274275
 10
374.0291406395
 20
294.8260179872
 10
372.4951534043
 20
297.0486766609
 10
371.1323297894
 20
299.4003593621
 10
369.9658419999
 20
301.8376308125
 10
369.0172323437
 20
304.3154705884
 10
368.3040233732
 20
306.7881187191
 10
367.8393807102
 20
309.2099030388
 10
367.6318970433
 20
311.5361000101
 10
367.6853971991
 20
313.7237468804
 10
367.9988959951
 20
315.7324325593
 10
368.5665982394
 20
317.5250641649
 10
369.378025172
 20
319.0685332017
 10
370.4181830515
 20
320.3343300298
 10
371.6678739883
 20
321.2990731767
 10
373.1040015096
 20
321.9449504344
 10
374.7000499791
 20
322.2600291728
 10
376.4265376765
 20
322.2384906054
 10
378.2515805107
 20
321.8807363068
 10
380.1414715397
 20
321.1933669738
 10
382.0613079046
 20
320.1890821036
 10
383.9756230323
 20
318.8864306208
  0
LWPOLYLINE
  5
495
330
1F
100
AcDbEntity
  8
0
  6
Continuous
 62
     7
370
    15
100
AcDbPolyline
 90
       21
 70
   128
 43
0.0
 10
383.9756230323
 20
318.8864306208
 10
387.7247379896
 20
318.9603952198
 10
391.3489086146
 20
319.3658947062
 10
394.8346795258
 20
320.1014342683
 10
398.1691221773
 20
321.1642811103
 10
401.3398717377
 20
322.5504918323
 10
404.3351639676
 20
324.2549276432
 10
407.1438852701
 20
326.2712634907
 10
409.7556227394
 20
328.5920200056
 10
412.1606826003
 20
331.2085893595
 10
414.3501468431
 20
334.1112641671
 10
416.3158916627
 20
337.2892781732
 10
418.0506269715
 20
340.7308413802
 10
419.5479161553
 20
344.4231883867
 10
420.8022050499
 20
348.3526231626
 10
421.8088430139
 20
352.5045674356
 10
422.5640928073
 20
356.8636211012
 10
423.0651556158
 20
361.4136134139
 10
423.3101710513
 20
366.1376683868
 10
423.2982309808
 20
371.0182614477
 10
423.0293795269
 20
376.0372863595
  0
LWPOLYLINE
  5
496
330
1F
100
AcDbEntity
  8
0
  6
Continuous
 62
     7
370
    15
100
AcDbPolyline
 90
       36
 70
   128
 43
0.0
 10
423.0293795269
 20
376.0372863595
 10
421.7772592193
 20
378.4145983024
 10
420.7288049962
 20
380.8534618306
 10
419.9029994028
 20
383.3097258695
 10
419.3147913995
 20
385.7389214729
 10
418.9748270169
 20
388.0970804359
 10
418.889262329
 20
390.3415094283
 10
419.0596462324
 20
392.4315785843
 10
419.4828941048
 20
394.3294485018
 10
420.1513431222
 20
396.0007713949
 10
421.0528931878
 20
397.4152819865
 10
422.1712249102
 20
398.5473773819
 10
423.4860913384
 20
399.376569191
 10
424.9736906984
 20
399.8878341374
 10
426.6070931295
 20
400.0719274083
 10
428.3567299834
 20
399.9255138808
 10
430.1909272448
 20
399.4512434577
 10
432.0764808527
 20
398.6576987919
 10
433.9792574575
 20
397.5592492391
 10
435.8648110654
 20
396.1757800483
 10
437.6990083268
 20
394.5323313903
 10
439.4486451807
 20
392.658657205
 10
441.0820476118
 20
390.5886776294
 10
442.5696469718
 20
388.359867021
 10
443.8845134001
 20
386.0125627477
 10
445.0028451224
 20
383.5892690296
 10
445.9043951881
 20
381.1338508886
 10
446.5728442054
 20
378.6907531877
 10
446.9960920778
 20
376.3042116784
 10
447.1664759813
 20
374.0174214548
 10
447.0809112933
 20
371.8717833482
 10
446.7409469107
 20
369.9061389065
 10
446.1527389075
 20
368.156073808
 10
445.3269333141
 20
366.6532646124
 10
444.2784790909
 20
365.4249205636
 10
443.0263587834
 20
364.4932759559
  0
LWPOLYLINE
  5
497
330
1F
100
AcDbEntity
  8
0
  6
Continuous
 62
     7
370
    15
100
AcDbPolyline
 90
       21
 70
   128
 43
0.0
 10
443.0263587834
 20
364.4932759559
 10
442.7575073294
 20
359.7846603256
 10
442.745567259
 20
354.9178529766
 10
442.9905826944
 20
349.9109092033
 10
443.4916455029
 20
344.782402086
 10
444.2468952963
 20
339.5513555698
 10
445.2535332603
 20
334.2371718426
 10
446.5078221549
 20
328.8595659341
 10
448.0051113388
 20
323.4384856331
 10
449.7398466475
 20
317.9940396712
 10
451.7055914671
 20
312.5464250061
 10
453.8950557099
 20
307.1158485917
 10
456.3001155708
 20
301.7224562288
 10
458.9118530401
 20
296.3862518174
 10
461.7205743426
 20
291.1270353807
 10
464.7158665725
 20
285.9643087729
 10
467.8866161329
 20
280.9172285324
 10
471.2210587845
 20
276.0045161515
 10
474.7068296956
 20
271.2443911611
 10
478.3310003206
 20
266.6545133382
 10
482.0801152779
 20
262.251912747
  0
LWPOLYLINE
  5
498
330
1F
100
AcDbEntity
  8
0
  6
Continuous
 62
     7
370
    15
100
AcDbPolyline
 90
       37
 70
   128
 43
0.0
 10
482.0801152779
 20
262.251912747
 10
483.9944304057
 20
261.3443430292
 10
485.9142667705
 20
260.1320320141
 10
487.8041577996
 20
258.6373796106
 10
489.6292006338
 20
256.8879843048
 10
491.3556883311
 20
254.9161626067
 10
492.9517368007
 20
252.7583255295
 10
494.3878643219
 20
250.4543307299
 10
495.6375552587
 20
248.0467251395
 10
496.6777131382
 20
245.5799875865
 10
497.4891400708
 20
243.0996649549
 10
498.0568423152
 20
240.6515782896
 10
498.3703411111
 20
238.2809346054
 10
498.4238412669
 20
236.03151777
 10
498.2163576001
 20
233.9448763414
 10
497.751714937
 20
232.0595570215
 10
497.0385059665
 20
230.4103624404
 10
496.0898963104
 20
229.0277640606
 10
494.9234085208
 20
227.9372907446
 10
493.5605849059
 20
227.1590906967
 10
492.0265976708
 20
226.7075359857
 10
490.3497800344
 20
226.5909578598
 10
488.5610993937
 20
226.8115128555
 10
486.6935883413
 20
227.3651401589
 10
484.7817440726
 20
228.2415980508
 10
482.8608751099
 20
229.4247011102
 10
480.966458563
 20
230.8926060882
 10
479.1334815846
 20
232.6182042448
 10
477.395803899
 20
234.5696110271
 10
475.7855097946
 20
236.710795672
 10
474.3323496782
 20
239.0022016916
 10
473.0631552873
 20
241.4015224901
 10
472.0013708061
 20
243.8644404901
 10
471.1666076904
 20
246.3454559952
 10
470.5742837839
 20
248.7987586465
 10
470.235336194
 20
251.1790319657
 10
470.1560263618
 20
253.4423202643
  0
LWPOLYLINE
  5
499
330
1F
100
AcDbEntity
  8
0
  6
Continuous
 62
     7
370
    15
100
AcDbPolyline
 90
       28
 70
   128
 43
0.0
 10
470.1560263618
 20
253.4423202643
 10
468.4214253962
 20
257.7508033596
 10
466.4663858761
 20
262.0182920298
 10
464.3030882408
 20
266.2182046771
 10
461.9449984084
 20
270.3243826416
 10
459.4068098239
 20
274.3112483722
 10
456.7043275556
 20
278.1539757594
 10
453.8543840011
 20
281.8286300528
 10
450.8747282519
 20
285.3123260267
 10
447.7839194094
 20
288.5833656138
 10
444.6012067296
 20
291.6213740172
 10
441.3464130606
 20
294.4074308791
 10
438.0398100488
 20
296.9241879507
 10
434.7019916981
 20
299.1559664195
 10
431.3537466121
 20
301.0888671646
 10
428.0159282614
 20
302.7108517339
 10
424.7093252496
 20
304.0118172373
 10
421.4545315807
 20
304.9836651563
 10
418.2718189008
 20
305.6203385952
 10
415.1810100583
 20
305.9178709385
 10
412.2013543091
 20
305.8744122651
 10
409.3514107546
 20
305.49023276
 10
406.6489284863
 20
304.767724984
 10
404.1107399019
 20
303.7113894149
 10
401.7526500695
 20
302.3278040189
 10
399.5893524342
 20
300.6255816565
 10
397.6343129141
 20
298.6153335695
 10
395.8997119484
 20
296.30957812
  0
LINE
  5
49A
330
1F
100
AcDbEntity
  8
0
  6
Continuous
 62
     7
370
    15
100
AcDbLine
 10
447.2689995074
 20
366.9425003126
 30
0.0
 11
443.0263587834
 21
364.4932759559
 31
0.0
  0
LINE
  5
49B
330
1F
100
AcDbEntity
  8
0
  6
Continuous
 62
     7
370
    15
100
AcDbLine
 10
486.3227560019
 20
264.7011371037
 30
0.0
 11
482.0801152779
 21
262.251912747
 31
0.0
  0
LWPOLYLINE
  5
49C
330
1F
100
AcDbEntity
  8
0
  6
Continuous
 62
     7
370
    15
100
AcDbPolyline
 90
       21
 70
   128
 43
0.0
 10
447.2689995074
 20
366.9425003126
 10
447.0001480534
 20
362.2338846823
 10
446.988207983
 20
357.3670773334
 10
447.2332234184
 20
352.3601335601
 10
447.7342862269
 20
347.2316264427
 10
448.4895360203
 20
342.0005799266
 10
449.4961739843
 20
336.6863961993
 10
450.7504628789
 20
331.3087902909
 10
452.2477520628
 20
325.8877099898
 10
453.9824873715
 20
320.4432640279
 10
455.9482321911
 20
314.9956493629
 10
458.1376964339
 20
309.5650729485
 10
460.5427562948
 20
304.1716805856
 10
463.1544937641
 20
298.8354761742
 10
465.9632150666
 20
293.5762597375
 10
468.9585072965
 20
288.4135331297
 10
472.1292568569
 20
283.3664528891
 10
475.4636995085
 20
278.4537405083
 10
478.9494704196
 20
273.6936155179
 10
482.5736410446
 20
269.1037376949
 10
486.3227560019
 20
264.7011371037
  0
LWPOLYLINE
  5
49D
330
1F
100
AcDbEntity
  8
0
  6
Continuous
 62
     7
370
    15
100
AcDbPolyline
 90
       26
 70
   128
 43
0.0
 10
427.2713228522
 20
401.5848542348
 10
427.7287320624
 20
401.8257935478
 10
429.2163314224
 20
402.3370584942
 10
430.8497338535
 20
402.5211517651
 10
432.5993707074
 20
402.3747382376
 10
434.4335679688
 20
401.9004678144
 10
436.3191215767
 20
401.1069231487
 10
438.2218981815
 20
400.0084735959
 10
440.1074517894
 20
398.625004405
 10
441.9416490508
 20
396.981555747
 10
443.6912859047
 20
395.1078815618
 10
445.3246883358
 20
393.0379019861
 10
446.8122876958
 20
390.8090913777
 10
448.1271541241
 20
388.4617871044
 10
449.2454858464
 20
386.0384933864
 10
450.1470359121
 20
383.5830752453
 10
450.8154849294
 20
381.1399775445
 10
451.2387328018
 20
378.7534360352
 10
451.4091167053
 20
376.4666458116
 10
451.3235520173
 20
374.321007705
 10
450.9835876347
 20
372.3553632633
 10
450.3953796315
 20
370.6052981648
 10
449.5695740381
 20
369.1024889691
 10
448.5211198149
 20
367.8741449204
 10
447.2689995074
 20
366.9425003126
 10
447.2689995074
 20
366.9425003126
  0
LWPOLYLINE
  5
49E
330
1F
100
AcDbEntity
  8
0
  6
Continuous
 62
     7
370
    15
100
AcDbPolyline
 90
       20
 70
   128
 43
0.0
 10
486.3227560019
 20
264.7011371037
 10
488.2370711297
 20
263.7935673859
 10
490.1569074945
 20
262.5812563709
 10
492.0467985236
 20
261.0866039674
 10
493.8718413578
 20
259.3372086616
 10
495.5983290551
 20
257.3653869634
 10
497.1943775246
 20
255.2075498863
 10
498.6305050459
 20
252.9035550867
 10
499.8801959827
 20
250.4959494963
 10
500.9203538622
 20
248.0292119433
 10
501.7317807948
 20
245.5488893116
 10
502.2994830392
 20
243.1008026463
 10
502.6129818351
 20
240.7301589622
 10
502.6664819909
 20
238.4807421267
 10
502.4589983241
 20
236.3941006981
 10
501.994355661
 20
234.5087813783
 10
501.2811466905
 20
232.8595867972
 10
500.3325370344
 20
231.4769884174
 10
499.1660492448
 20
230.3865151014
 10
498.5349370669
 20
229.9729922082
  0
LINE
  5
49F
330
1F
100
AcDbEntity
  8
0
  6
Continuous
 62
     7
370
    15
100
AcDbLine
 10
388.2182637563
 20
321.3356549776
 30
0.0
 11
383.9756230323
 21
318.8864306208
 31
0.0
  0
ARC
  5
4A0
330
1F
100
AcDbEntity
  8
0
  6
Continuous
 62
     7
370
    15
100
AcDbCircle
 10
389.608761434
 20
357.7773593056
 30
0.0
 40
36.46822312816283
100
AcDbArc
 50
267.814838278
 51
295.1572672506
  0
LINE
  5
4A1
330
1F
100
AcDbEntity
  8
0
  6
Continuous
 62
     7
370
    15
100
AcDbLine
 10
400.1423526724
 20
298.7588024767
 30
0.0
 11
395.8997119484
 21
296.30957812
 31
0.0
  0
ARC
  5
4A2
330
1F
100
AcDbEntity
  8
0
  6
Continuous
 62
     7
370
    15
100
AcDbCircle
 10
418.4682012542
 20
286.8127846161
 30
0.0
 40
21.87565013823257
100
AcDbArc
 50
127.2509813418
 51
146.9009929144
  0
LWPOLYLINE
  5
4A3
330
1F
100
AcDbEntity
  8
0
  6
Continuous
 62
     7
370
    15
100
AcDbPolyline
 90
        7
 70
   128
 43
0.0
 10
400.1423526724
 20
298.7588024767
 10
400.0630428402
 20
296.5870833612
 10
399.7240952503
 20
294.5981505994
 10
399.1317713439
 20
292.8287305736
 10
398.2970082281
 20
291.3115120471
 10
397.235223747
 20
290.0745043147
 10
396.0044567451
 20
289.1625786122
  0
LWPOLYLINE
  5
4A4
330
1F
100
AcDbEntity
  8
0
  6
Continuous
 62
     7
370
    15
100
AcDbPolyline
 90
        8
 70
   128
 43
0.0
 10
376.0060826913
 20
323.8045320853
 10
377.3466422336
 20
324.3941747911
 10
378.9426907031
 20
324.7092535295
 10
380.6691784004
 20
324.6877149622
 10
382.4942212347
 20
324.3299606636
 10
384.3841122637
 20
323.6425913306
 10
386.3039486286
 20
322.6383064603
 10
388.2182637563
 20
321.3356549776
  0
ENDSEC
  0
SECTION
  2
OBJECTS
  0
DICTIONARY
  5
C
330
0
100
AcDbDictionary
281
     1
  3
ACAD_GROUP
350
D
  3
ACAD_LAYOUT
350
1A
  3
ACAD_MLINESTYLE
350
17
  3
ACAD_PLOTSETTINGS
350
19
  3
ACAD_PLOTSTYLENAME
350
E
  3
ACAD_SCALELIST
350
47
  0
DICTIONARY
  5
D
102
{ACAD_REACTORS
330
C
102
}
330
C
100
AcDbDictionary
281
     1
  0
DICTIONARY
  5
1A
102
{ACAD_REACTORS
330
C
102
}
330
C
100
AcDbDictionary
281
     1
  3
Layout1
350
1E
  3
Layout2
350
26
  3
Model
350
22
  0
DICTIONARY
  5
17
102
{ACAD_REACTORS
330
C
102
}
330
C
100
AcDbDictionary
281
     1
  3
Standard
350
18
  0
DICTIONARY
  5
19
102
{ACAD_REACTORS
330
C
102
}
330
C
100
AcDbDictionary
281
     1
  0
ACDBDICTIONARYWDFLT
  5
E
102
{ACAD_REACTORS
330
C
102
}
330
C
100
AcDbDictionary
281
     1
  3
Normal
350
F
100
AcDbDictionaryWithDefault
340
F
  0
DICTIONARY
  5
47
102
{ACAD_REACTORS
330
C
102
}
330
C
100
AcDbDictionary
281
     1
  3
A0
350
48
  3
A1
350
49
  3
A2
350
4A
  3
A3
350
4B
  3
A4
350
4C
  3
A5
350
4D
  3
A6
350
4E
  3
A7
350
4F
  3
A8
350
50
  3
A9
350
51
  3
B0
350
52
  3
B1
350
53
  3
B2
350
54
  3
B3
350
55
  3
B4
350
56
  3
B5
350
57
  3
B6
350
58
  3
B7
350
59
  3
B8
350
5A
  3
B9
350
5B
  3
C0
350
5C
  3
C1
350
5D
  3
C2
350
5E
  3
C3
350
5F
  3
C4
350
60
  3
C5
350
61
  3
C6
350
62
  3
C7
350
63
  3
C8
350
64
  3
C9
350
65
  3
D0
350
66
  3
D1
350
67
  3
D2
350
68
  0
LAYOUT
  5
1E
102
{ACAD_REACTORS
330
1A
102
}
330
1A
100
AcDbPlotSettings
  1

  2
none_device
  4

  6

 40
0.0
 41
0.0
 42
0.0
 43
0.0
 44
0.0
 45
0.0
 46
0.0
 47
0.0
 48
0.0
 49
0.0
140
0.0
141
0.0
142
1.0
143
1.0
 70
   688
 72
     1
 73
     0
 74
     5
  7

 75
    16
147
1.0
148
0.0
149
0.0
100
AcDbLayout
  1
Layout1
 70
     1
 71
     1
 10
0.0
 20
0.0
 11
420.0
 21
297.0
 12
0.0
 22
0.0
 32
0.0
 14
1.0000000000E+20
 24
1.0000000000E+20
 34
1.0000000000E+20
 15
-1.0000000000E+20
 25
-1.0000000000E+20
 35
-1.0000000000E+20
146
0.0
 13
0.0
 23
0.0
 33
0.0
 16
1.0
 26
0.0
 36
0.0
 17
0.0
 27
1.0
 37
0.0
 76
     0
330
1B
  0
LAYOUT
  5
26
102
{ACAD_REACTORS
330
1A
102
}
330
1A
100
AcDbPlotSettings
  1

  2
none_device
  4

  6

 40
0.0
 41
0.0
 42
0.0
 43
0.0
 44
0.0
 45
0.0
 46
0.0
 47
0.0
 48
0.0
 49
0.0
140
0.0
141
0.0
142
1.0
143
1.0
 70
   688
 72
     1
 73
     0
 74
     5
  7

 75
    16
147
1.0
148
0.0
149
0.0
100
AcDbLayout
  1
Layout2
 70
     1
 71
     2
 10
0.0
 20
0.0
 11
0.0
 21
0.0
 12
0.0
 22
0.0
 32
0.0
 14
0.0
 24
0.0
 34
0.0
 15
0.0
 25
0.0
 35
0.0
146
0.0
 13
0.0
 23
0.0
 33
0.0
 16
1.0
 26
0.0
 36
0.0
 17
0.0
 27
1.0
 37
0.0
 76
     0
330
23
  0
LAYOUT
  5
22
102
{ACAD_REACTORS
330
1A
102
}
330
1A
100
AcDbPlotSettings
  1

  2
none_device
  4
Letter_(8.50_x_11.00_Inches)
  6

 40
6.35
 41
6.35
 42
6.35000508
 43
6.35000508
 44
215.9
 45
279.4
 46
0.0
 47
0.0
 48
0.0
 49
0.0
140
0.0
141
0.0
142
1.0
143
1.0
 70
  1712
 72
     1
 73
     0
 74
     0
  7

 75
     0
147
1.0
148
0.0
149
0.0
100
AcDbLayout
  1
Model
 70
     1
 71
     0
 10
0.0
 20
0.0
 11
431.8
 21
279.4
 12
0.0
 22
0.0
 32
0.0
 14
0.0
 24
0.0
 34
0.0
 15
431.8
 25
279.4
 35
0.0
146
0.0
 13
0.0
 23
0.0
 33
0.0
 16
1.0
 26
0.0
 36
0.0
 17
0.0
 27
1.0
 37
0.0
 76
     0
330
1F
331
29
  0
MLINESTYLE
  5
18
102
{ACAD_REACTORS
330
17
102
}
330
17
100
AcDbMlineStyle
  2
Standard
 70
     0
  3

 62
   256
 51
90.0
 52
90.0
 71
     2
 49
0.5
 62
   256
  6
BYLAYER
 49
-0.5
 62
   256
  6
BYLAYER
  0
ACDBPLACEHOLDER
  5
F
102
{ACAD_REACTORS
330
E
102
}
330
E
  0
SCALE
  5
48
102
{ACAD_REACTORS
330
47
102
}
330
47
100
AcDbScale
 70
     0
300
1:1
140
1.0
141
1.0
290
     1
  0
SCALE
  5
49
102
{ACAD_REACTORS
330
47
102
}
330
47
100
AcDbScale
 70
     0
300
1:2
140
1.0
141
2.0
290
     0
  0
SCALE
  5
4A
102
{ACAD_REACTORS
330
47
102
}
330
47
100
AcDbScale
 70
     0
300
1:4
140
1.0
141
4.0
290
     0
  0
SCALE
  5
4B
102
{ACAD_REACTORS
330
47
102
}
330
47
100
AcDbScale
 70
     0
300
1:5
140
1.0
141
5.0
290
     0
  0
SCALE
  5
4C
102
{ACAD_REACTORS
330
47
102
}
330
47
100
AcDbScale
 70
     0
300
1:8
140
1.0
141
8.0
290
     0
  0
SCALE
  5
4D
102
{ACAD_REACTORS
330
47
102
}
330
47
100
AcDbScale
 70
     0
300
1:10
140
1.0
141
10.0
290
     0
  0
SCALE
  5
4E
102
{ACAD_REACTORS
330
47
102
}
330
47
100
AcDbScale
 70
     0
300
1:16
140
1.0
141
16.0
290
     0
  0
SCALE
  5
4F
102
{ACAD_REACTORS
330
47
102
}
330
47
100
AcDbScale
 70
     0
300
1:20
140
1.0
141
20.0
290
     0
  0
SCALE
  5
50
102
{ACAD_REACTORS
330
47
102
}
330
47
100
AcDbScale
 70
     0
300
1:30
140
1.0
141
30.0
290
     0
  0
SCALE
  5
51
102
{ACAD_REACTORS
330
47
102
}
330
47
100
AcDbScale
 70
     0
300
1:40
140
1.0
141
40.0
290
     0
  0
SCALE
  5
52
102
{ACAD_REACTORS
330
47
102
}
330
47
100
AcDbScale
 70
     0
300
1:50
140
1.0
141
50.0
290
     0
  0
SCALE
  5
53
102
{ACAD_REACTORS
330
47
102
}
330
47
100
AcDbScale
 70
     0
300
1:100
140
1.0
141
100.0
290
     0
  0
SCALE
  5
54
102
{ACAD_REACTORS
330
47
102
}
330
47
100
AcDbScale
 70
     0
300
2:1
140
2.0
141
1.0
290
     0
  0
SCALE
  5
55
102
{ACAD_REACTORS
330
47
102
}
330
47
100
AcDbScale
 70
     0
300
4:1
140
4.0
141
1.0
290
     0
  0
SCALE
  5
56
102
{ACAD_REACTORS
330
47
102
}
330
47
100
AcDbScale
 70
     0
300
8:1
140
8.0
141
1.0
290
     0
  0
SCALE
  5
57
102
{ACAD_REACTORS
330
47
102
}
330
47
100
AcDbScale
 70
     0
300
10:1
140
10.0
141
1.0
290
     0
  0
SCALE
  5
58
102
{ACAD_REACTORS
330
47
102
}
330
47
100
AcDbScale
 70
     0
300
100:1
140
100.0
141
1.0
290
     0
  0
SCALE
  5
59
102
{ACAD_REACTORS
330
47
102
}
330
47
100
AcDbScale
 70
     0
300
1/128" = 1'-0"
140
0.0078125
141
12.0
290
     0
  0
SCALE
  5
5A
102
{ACAD_REACTORS
330
47
102
}
330
47
100
AcDbScale
 70
     0
300
1/64" = 1'-0"
140
0.015625
141
12.0
290
     0
  0
SCALE
  5
5B
102
{ACAD_REACTORS
330
47
102
}
330
47
100
AcDbScale
 70
     0
300
1/32" = 1'-0"
140
0.03125
141
12.0
290
     0
  0
SCALE
  5
5C
102
{ACAD_REACTORS
330
47
102
}
330
47
100
AcDbScale
 70
     0
300
1/16" = 1'-0"
140
0.0625
141
12.0
290
     0
  0
SCALE
  5
5D
102
{ACAD_REACTORS
330
47
102
}
330
47
100
AcDbScale
 70
     0
300
3/32" = 1'-0"
140
0.09375
141
12.0
290
     0
  0
SCALE
  5
5E
102
{ACAD_REACTORS
330
47
102
}
330
47
100
AcDbScale
 70
     0
300
1/8" = 1'-0"
140
0.125
141
12.0
290
     0
  0
SCALE
  5
5F
102
{ACAD_REACTORS
330
47
102
}
330
47
100
AcDbScale
 70
     0
300
3/16" = 1'-0"
140
0.1875
141
12.0
290
     0
  0
SCALE
  5
60
102
{ACAD_REACTORS
330
47
102
}
330
47
100
AcDbScale
 70
     0
300
1/4" = 1'-0"
140
0.25
141
12.0
290
     0
  0
SCALE
  5
61
102
{ACAD_REACTORS
330
47
102
}
330
47
100
AcDbScale
 70
     0
300
3/8" = 1'-0"
140
0.375
141
12.0
290
     0
  0
SCALE
  5
62
102
{ACAD_REACTORS
330
47
102
}
330
47
100
AcDbScale
 70
     0
300
1/2" = 1'-0"
140
0.5
141
12.0
290
     0
  0
SCALE
  5
63
102
{ACAD_REACTORS
330
47
102
}
330
47
100
AcDbScale
 70
     0
300
3/4" = 1'-0"
140
0.75
141
12.0
290
     0
  0
SCALE
  5
64
102
{ACAD_REACTORS
330
47
102
}
330
47
100
AcDbScale
 70
     0
300
1" = 1'-0"
140
1.0
141
12.0
290
     0
  0
SCALE
  5
65
102
{ACAD_REACTORS
330
47
102
}
330
47
100
AcDbScale
 70
     0
300
1-1/2" = 1'-0"
140
1.5
141
12.0
290
     0
  0
SCALE
  5
66
102
{ACAD_REACTORS
330
47
102
}
330
47
100
AcDbScale
 70
     0
300
3" = 1'-0"
140
3.0
141
12.0
290
     0
  0
SCALE
  5
67
102
{ACAD_REACTORS
330
47
102
}
330
47
100
AcDbScale
 70
     0
300
6" = 1'-0"
140
6.0
141
12.0
290
     0
  0
SCALE
  5
68
102
{ACAD_REACTORS
330
47
102
}
330
47
100
AcDbScale
 70
     0
300
1'-0" = 1'-0"
140
12.0
141
12.0
290
     0
  0
ENDSEC
  0
EOF
